Guitar Tabs, Chords and Lyrics
Server problems seems to be fixed. Chordie has been experiencing problems with songs disappearing. These issues now seems to be fixed, but still verifying the fix. If you find anything strange, please email admin@chordie.com.


Shadows Die  Black Veil Brides

 
 ----------------------------------------------------------------------------

Shadows Die
Black Veil Brides
 
 ----------------------------------------------------------------------------

?Wretched and Divine? has to be my favorite BVB albums. So much beauty, so much
passion, so much... guitar solo insanity! Shadows Die is my favorite off the
album. The instrumentals are incredible. Enjoy!
Username: dkm817 (same on X box live)
Youtube Cover: http://www.youtube.com/watch?v=6GAqTnIyA0k
Email: guitardrums@rockfan.com
Guitar 1 Rhythmic (C# G# C# F# A# D#)
Guitar 2 Lead (C# G# C# F# A# D#)
Guitar 3 Fade In (C# G# C# F# A# D#)
Gutiar 4 Fade In (C# G# C# F# A# D#)
NOTE: This was exported off of guitar pro.
Guitar 1
Starts at (00:09)
[E] [E] [E] [E] [E] [E] [E] [E] [E] [E] [E] [E] [E] [E] [E] [E] [E] [E]  
 
 --------------------|--------------------|-----------------------|
 -----4-----4-----4--|-----7-----7-----7--|------9------9------9--|
 --3-----3-----3-----|--8-----8-----8-----|--10-----10-----10-----|
 --------------------|--------------------|-----------------------|
 --------------------|--------------------|-----------------------|
 --------------------|--------------------|-----------------------|

[E] [E] [E] [E] [E] [E] [E] [E] [E] [E] [E] [E] [E] [E] [E] [E] [E] [E]  
 
 --------------------|--------------------|--------------------|
 -----6-----6-----6--|-----7-----7-----7--|-----4-----4-----4--|
 --7-----7-----7-----|--8-----8-----8-----|--4-----4-----4-----|
 --------------------|--------------------|--------------------|
 --------------------|--------------------|--------------------|
 --------------------|--------------------|--------------------|

E E E E E E E E E E E E H Q Q Q E E
 
 --------------------|--------------------|----------------|--------------------|
 -----6-----6-----6--|-----3-----3-----3--|----------------|--9----11----12-----|
 --7-----7-----7-----|--3-----3-----3-----|--4--------8----|--------------------|
 --------------------|--------------------|----------------|--------------------|
 --------------------|--------------------|----------------|--------------------|
 --------------------|--------------------|----------------|--------------------|

H Q Q Q Q E E E E E E E E E E E E
 
 ------------------|------------------|--------------------|--------------------|
 --11b--------L----|--L---------------|-----4-----4-----4--|-----7-----7-----7--|
 ------------------|-------10----7----|--3-----3-----3-----|--8-----8-----8-----|
 ------------------|------------------|--------------------|--------------------|
 ------------------|------------------|--------------------|--------------------|
 ------------------|------------------|--------------------|--------------------|

[E] [E] [E] [E] [E] [E] [E] [E] [E] [E] [E] [E] [E] [E] [E] [E] [E] [E]  
 
 -----------------------|--------------------|--------------------|
 ------9------9------9--|-----6-----6-----6--|-----7-----7-----7--|
 --10-----10-----10-----|--7-----7-----7-----|--8-----8-----8-----|
 -----------------------|--------------------|--------------------|
 -----------------------|--------------------|--------------------|
 -----------------------|--------------------|--------------------|

[E] [E] [E] [E] [E] [E] [E] [E] [E] [E] [E] [E] [E] [E] [E] [E] [E] [E]  
 
 --------------------|--------------------|--------------------|
 -----4-----4-----4--|-----6-----6-----6--|-----3-----3-----3--|
 --4-----4-----4-----|--7-----7-----7-----|--3-----3-----3-----|
 --------------------|--------------------|--------------------|
 --------------------|--------------------|--------------------|
 --------------------|--------------------|--------------------|

[E] [E] [E] [E] [E] [E] [E] [E] [E] [E] [E] [E] [E] [E] [E] [E] [E] [E]  
 
 --------------------|--------------------|-----------------------|
 -----4-----4-----4--|-----7-----7-----7--|------9------9------9--|
 --3-----3-----3-----|--8-----8-----8-----|--10-----10-----10-----|
 --------------------|--------------------|-----------------------|
 --------------------|--------------------|-----------------------|
 --------------------|--------------------|-----------------------|

[E] [E] [E] [E] [E] [E] [E] [E] [E] [E] [E] [E] [E] [E] [E] [E] [E] [E]  
 
 --------------------|--------------------|--------------------|
 -----6-----6-----6--|-----7-----7-----7--|-----4-----4-----4--|
 --7-----7-----7-----|--8-----8-----8-----|--4-----4-----4-----|
 --------------------|--------------------|--------------------|
 --------------------|--------------------|--------------------|
 --------------------|--------------------|--------------------|

E E E E E E E E E E E E H Q Q Q E E
 
 --------------------|--------------------|----------------|--------------------|
 -----6-----6-----6--|-----3-----3-----3--|----------------|--9----11----12-----|
 --7-----7-----7-----|--3-----3-----3-----|--4--------8----|--------------------|
 --------------------|--------------------|----------------|--------------------|
 --------------------|--------------------|----------------|--------------------|
 --------------------|--------------------|----------------|--------------------|

H Q Q Q Q H Q Q
 
 ------------------|------------------|------------------------|
 --11b--------L----|--L---------------|------------------------|
 ------------------|-------10----7----|------------------------|
 ------------------|------------------|--1--------L----/13\----|
 ------------------|------------------|--1--------L----/13\----|
 ------------------|------------------|--1--------L----/13\----|
 |--3--| |--3--| |--3--| |--3--| |--3--| |--3--| |--3--| |--3--| 

[E] [E] [E] [E] [E] [E] [E] [E] [E] [E] [E] [E] [E] [E] [E] [E] [E] [E] [E] [E] [E] [E] [E] [E]  
 
 --------------------------------------|--------------------------------------|
 --------------------------------------|--------------------------------------|
 --------------------------------------|--------------------------------------|
 -----------1--------------------------|--------------------------------------|
 --------1-----1-----------1--2--1-----|--------0--1--0-----------0--1--0-----|
 --1--4-----------4--1--4-----------4--|--0--3-----------3--0--3-----------3--|
 |--3--| |--3--| |--3--| |--3--| |--3--| |--3--| |--3--| |--3--| 

[E] [E] [E] [E] [E] [E] [E] [E] [E] [E] [E] [E] [E] [E] [E] [E] [E] [E] [E] [E] [E] [E] [E] [E]  
 
 --------------------------------------|--------------------------------------|
 --------------------------------------|--------------------------------------|
 --------------------------------------|--------------------------------------|
 -----------1--------------------------|--------------------------------------|
 --------1-----1-----------1--2--1-----|--------0--1--0-----------0--1--0-----|
 --1--4-----------4--1--4-----------4--|--0--3-----------3--0--3-----------3--|

PM PM PM PM PM PM PM PM PM
 
 |--3--| |--3--| |--3--| 

Q E E E Q Q Q E E E Q E E E
 
 --------------------------|------------------------------|
 --------------------------|------------------------------|
 --------------------------|------------------------------|
 --1----1--1--1--1----4----|--0----0--0--0--0----0--0--0--|
 --1----1--1--1--1----4----|--0----0--0--0--0----0--0--0--|
 --1----1--1--1--1----4----|--0----0--0--0--0----0--0--0--|

PM PM PM
 
 |--3--| |--3--| |--3--| 

Q E E E Q Q Q Q E E E E E E
 
 ---------------------------|------------------------------|
 ---------------------------|------------------------------|
 ---------------------------|------------------------------|
 --1----1--1--1--1----/4----|--3----0----------4-----------|
 --1----1--1--1--1----------|------------5--6-----6--5-----|
 --1----1--1--1--1----------|---------------------------8--|

PM PM PM PM PM PM PM PM PM
 
 |--3--| |--3--| |--3--| 

Q E E E Q Q Q E E E Q E E E
 
 --------------------------|------------------------------|
 --------------------------|------------------------------|
 --------------------------|------------------------------|
 --1----1--1--1--1----4----|--0----0--0--0--0----0--0--0--|
 --1----1--1--1--1----4----|--0----0--0--0--0----0--0--0--|
 --1----1--1--1--1----4----|--0----0--0--0--0----0--0--0--|

PM PM PM PM PM PM PM PM PM PM PM PM
 
 |--3--| |--3--| |--3--| |-3| |--3--| |--3--| |--3--| |-3| 

E E E E E E E E E E Q E E E E E E E E E E Q
 
 -------------------------------------|-------------------------------------|
 -------------------------------------|-------------------------------------|
 --4--------3--------4-----3-----1----|--3--------1--------3-----1----------|
 --4----------------------------------|--3-----------------------------3----|
 --2--2--2-----2--2-----2-----2-------|--1--1--1-----1--1-----1-----1-------|
 -------------------------------------|-------------------------------------|

PM PM PM PM PM PM PM PM PM
 
 |--3--| |--3--| |--3--| 

Q E E E Q Q Q E E E Q E E E
 
 --------------------------|------------------------------|
 --------------------------|------------------------------|
 --------------------------|------------------------------|
 --1----1--1--1--1----4----|--0----0--0--0--0----0--0--0--|
 --1----1--1--1--1----4----|--0----0--0--0--0----0--0--0--|
 --1----1--1--1--1----4----|--0----0--0--0--0----0--0--0--|

PM PM PM
 
 |--3--| |--3--| |--3--| 

Q E E E Q Q Q Q E E E E E E
 
 ---------------------------|------------------------------|
 ---------------------------|------------------------------|
 ---------------------------|------------------------------|
 --1----1--1--1--1----/4----|--3----0----------4-----------|
 --1----1--1--1--1----------|------------5--6-----6--5-----|
 --1----1--1--1--1----------|---------------------------8--|

PM PM PM PM PM PM PM PM PM
 
 |--3--| |--3--| |--3--| 

Q E E E Q Q Q E E E Q E E E
 
 --------------------------|------------------------------|
 --------------------------|------------------------------|
 --------------------------|------------------------------|
 --1----1--1--1--1----4----|--0----0--0--0--0----0--0--0--|
 --1----1--1--1--1----4----|--0----0--0--0--0----0--0--0--|
 --1----1--1--1--1----4----|--0----0--0--0--0----0--0--0--|

PM PM PM PM PM PM PM PM PM PM
 
 |--3--| |--3--| |--3--| |-3| |--3--| |--3--| |--3--| |--3--| 

E E E E E E E E E E Q E E E E E E E E E E E E
 
 -------------------------------------|--------------------------------------|
 -------------------------------------|--------------------------------------|
 --4--------3--------4-----3-----1----|--3--------1--------------------------|
 --4----------------------------------|--3-----------------0--1--0-----------|
 --2--2--2-----2--2-----2-----2-------|--1--1--1-----1--1-----------4--2--1--|
 -------------------------------------|--------------------------------------|
 |--3--| |--3--| |--3--| |--3--| |--3--| |--3--| |--3--| |--3--| 

[E] [E] [E] [E] [E] [E] [E] [E] [E] [E] [E] [E] [E] [E] [E] [E] [E] [E] [E] [E] [E] [E] [E] [E]  
 
 --------------------------------------|--------------------------------------|
 --------------------------------------|--------------------------------------|
 --------------------------------------|--------------------------------------|
 -----------1--------------------------|--------------------------------------|
 --------1-----1-----------1--2--1-----|--------0--1--0-----------0--1--0-----|
 --1--4-----------4--1--4-----------4--|--0--3-----------3--0--3-----------3--|
 |--3--| |--3--| |--3--| |--3--| 

[E] [E] [E] [E] [E] [E] [E] [E] [E] [E] [E] [E]  
 
 --------------------------------------|
 --------------------------------------|
 --------------------------------------|
 -----------1--------------------------|
 --------1-----1-----------1--2--1-----|
 --1--4-----------4--1--4-----------4--|

PM PM PM PM PM PM PM
 
 |--3--| |--3--| |-3| |-3| |--3--| |--3--| |--3--| 

E E E E E E E S S E E E E Q E E E Q E E E
 
 -----------------------------------------|------------------------------|
 -----------------------------------------|------------------------------|
 -----------------------------------------|------------------------------|
 -----------------------------------------|--1----1--1--1--1----1--1--1--|
 --------0--1--0--------------------------|--1----1--1--1--1----1--1--1--|
 --0--3-----------3--0--0--0--0--0--0--0--|--1----1--1--1--1----1--1--1--|
 |--3--| |--3--| |--3--| |--3--| 

Q E E E Q E E E Q E E E Q E E E
 
 ------------------------------|------------------------------|
 ------------------------------|------------------------------|
 --4----4--4--4--4----4--4--4--|------------------------------|
 --4----4--4--4--4----4--4--4--|--4----4--4--4--4----4--4--4--|
 --2----2--2--2--2----2--2--2--|--4----4--4--4--4----4--4--4--|
 ------------------------------|--4----4--4--4--4----4--4--4--|
 |--3--| |--3--| |--3--| |--3--| |--3--| 

Q E E E E E E E E E Q E E E Q E E E
 
 ----------------------------------|------------------------------|
 ----------------------------------|------------------------------|
 --3----3--3--3--------------------|------------------------------|
 --3----3--3--3--------------------|--1----1--1--1--1----1--1--1--|
 --1----1--1--1--1--2--1-----------|--1----1--1--1--1----1--1--1--|
 -------------------------6--4--3--|--1----1--1--1--1----1--1--1--|
 |--3--| |--3--| |--3--| |--3--| 

Q E E E Q E E E Q E E E Q E E E
 
 ------------------------------|------------------------------|
 ------------------------------|------------------------------|
 --4----4--4--4--4----4--4--4--|------------------------------|
 --4----4--4--4--4----4--4--4--|--4----4--4--4--4----4--4--4--|
 --2----2--2--2--2----2--2--2--|--4----4--4--4--4----4--4--4--|
 ------------------------------|--4----4--4--4--4----4--4--4--|
 |--3--| |--3--| |--3--| |--3--| 

Q E E E Q E E E Q E E E Q E E E
 
 ------------------------------|------------------------------|
 ------------------------------|------------------------------|
 ------------------------------|------------------------------|
 --0----0--0--0--3----3--3--3--|--1----1--1--1--1----1--1--1--|
 --0----0--0--0--3----3--3--3--|--1----1--1--1--1----1--1--1--|
 --0----0--0--0--3----3--3--3--|--1----1--1--1--1----1--1--1--|
 |--3--| |--3--| |--3--| |--3--| 

Q E E E Q E E E Q E E E Q E E E
 
 ------------------------------|------------------------------|
 ------------------------------|------------------------------|
 --4----4--4--4--4----4--4--4--|------------------------------|
 --4----4--4--4--4----4--4--4--|--4----4--4--4--4----4--4--4--|
 --2----2--2--2--2----2--2--2--|--4----4--4--4--4----4--4--4--|
 ------------------------------|--4----4--4--4--4----4--4--4--|
 |--3--| |--3--| |--3--| |--3--| |--3--| 

Q E E E E E E E E E Q E E E Q E E E
 
 ----------------------------------|------------------------------|
 ----------------------------------|------------------------------|
 --3----3--3--3--------------------|------------------------------|
 --3----3--3--3--------------------|--1----1--1--1--1----1--1--1--|
 --1----1--1--1--1--2--1-----------|--1----1--1--1--1----1--1--1--|
 -------------------------6--4--3--|--1----1--1--1--1----1--1--1--|
 |--3--| |--3--| |--3--| |--3--| 

Q E E E Q E E E Q E E E Q E E E
 
 ------------------------------|------------------------------|
 ------------------------------|------------------------------|
 --4----4--4--4--4----4--4--4--|------------------------------|
 --4----4--4--4--4----4--4--4--|--4----4--4--4--4----4--4--4--|
 --2----2--2--2--2----2--2--2--|--4----4--4--4--4----4--4--4--|
 ------------------------------|--4----4--4--4--4----4--4--4--|

PM PM PM PM PM PM
 
 |--3--| |--3--| |--3--| |--3--| 

Q E E E Q E E E E E E E E E E E E E
 
 ------------------------------|--------------------------------|
 ------------------------------|--------------------------------|
 ------------------------------|--------------------------------|
 --0----0--0--0--3----3--3--3--|--1-----1--1--1--1-----1--1--1--|
 --0----0--0--0--3----3--3--3--|--1-----1--1--1--1-----1--1--1--|
 --0----0--0--0--3----3--3--3--|--1-----1--1--1--1-----1--1--1--|

PM PM PM PM PM PM PM PM PM
 
 |--3--| |--3--| |--3--| |--3--| |--3--| 

[E] [E] [E] [E] [E] [E] [E] [E] [E] [E] [E] [E] [E] [E] [E] [E] [E] [E] [E] [E] [E]  
 
 -----------------------------------|--------------------------------|
 -----------------------------------|--------------------------------|
 -----------------------------------|--------------------------------|
 --1-----1--1--1--------------------|--1-----1--1--1--1-----1--1--1--|
 --1-----1--1--1--1--2--1-----------|--1-----1--1--1--1-----1--1--1--|
 --1-----1--1--1-----------6--4--3--|--1-----1--1--1--1-----1--1--1--|

PM PM PM PM PM PM PM PM PM PM
 
 |--3--| |-3| |-3| |--3--| --- --- --- --- --- --- 

E E E E E E S S E E E E
 
 --------------------------------------|-----|-----|-----|-----|-----|-----|
 --------------------------------------|-----|-----|-----|-----|-----|-----|
 --------------------------------------|-----|-----|-----|-----|-----|-----|
 --1-----1--1--1--1--0--0--0--0--0--0--|-----|-----|-----|-----|-----|-----|
 --1-----1--1--1--1--0--0--0--0--0--0--|-----|-----|-----|-----|-----|-----|
 --1-----1--1--1--1--0--0--0--0--0--0--|-----|-----|-----|-----|-----|-----|

PM PM PM PM PM PM PM PM PM
 
 --- --- |--3--| |--3--| |--3--| 

Q E E E Q Q Q E E E Q E E E
 
 -----|-----|--------------------------|------------------------------|
 -----|-----|--------------------------|------------------------------|
 -----|-----|--------------------------|------------------------------|
 -----|-----|--1----1--1--1--1----4----|--0----0--0--0--0----0--0--0--|
 -----|-----|--1----1--1--1--1----4----|--0----0--0--0--0----0--0--0--|
 -----|-----|--1----1--1--1--1----4----|--0----0--0--0--0----0--0--0--|

PM PM PM
 
 |--3--| |--3--| |--3--| 

Q E E E Q Q Q Q E E E E E E
 
 ---------------------------|------------------------------|
 ---------------------------|------------------------------|
 ---------------------------|------------------------------|
 --1----1--1--1--1----/4----|--3----0----------4-----------|
 --1----1--1--1--1----------|------------5--6-----6--5-----|
 --1----1--1--1--1----------|---------------------------8--|

PM PM PM PM PM PM PM PM PM
 
 |--3--| |--3--| |--3--| 

Q E E E Q Q Q E E E Q E E E
 
 --------------------------|------------------------------|
 --------------------------|------------------------------|
 --------------------------|------------------------------|
 --1----1--1--1--1----4----|--0----0--0--0--0----0--0--0--|
 --1----1--1--1--1----4----|--0----0--0--0--0----0--0--0--|
 --1----1--1--1--1----4----|--0----0--0--0--0----0--0--0--|

PM PM PM PM PM PM PM PM PM PM
 
 |--3--| |--3--| |--3--| |-3| |--3--| |--3--| |--3--| |--3--| 

E E E E E E E E E E Q E E E E E E E E E E E E
 
 -------------------------------------|--------------------------------------|
 -------------------------------------|--------------------------------------|
 --4--------3--------4-----3-----1----|--3--------1--------------------------|
 --4----------------------------------|--3-----------------0--1--0-----------|
 --2--2--2-----2--2-----2-----2-------|--1--1--1-----1--1-----------4--2--1--|
 -------------------------------------|--------------------------------------|
 |--3--| |--3--| |--3--| |--3--| |--3--| |--3--| |--3--| |--3--| 

[E] [E] [E] [E] [E] [E] [E] [E] [E] [E] [E] [E] [E] [E] [E] [E] [E] [E] [E] [E] [E] [E] [E] [E]  
 
 --------------------------------------|--------------------------------------|
 --------------------------------------|--------------------------------------|
 --------------------------------------|--------------------------------------|
 -----------1--------------------------|--------------------------------------|
 --------1-----1-----------1--2--1-----|--------0--1--0-----------0--1--0-----|
 --1--4-----------4--1--4-----------4--|--0--3-----------3--0--3-----------3--|
 |--3--| |--3--| |--3--| |--3--| 

[E] [E] [E] [E] [E] [E] [E] [E] [E] [E] [E] [E]  
 
 --------------------------------------|
 --------------------------------------|
 --------------------------------------|
 -----------1--------------------------|
 --------1-----1-----------1--2--1-----|
 --1--4-----------4--1--4-----------4--|

PM PM PM PM PM PM PM
 
 |--3--| |--3--| |-3| |-3| |--3--| |--3--| |--3--| 

E E E E E E E S S E E E E Q E E E Q E E E
 
 -----------------------------------------|------------------------------|
 -----------------------------------------|------------------------------|
 -----------------------------------------|------------------------------|
 -----------------------------------------|--1----1--1--1--1----1--1--1--|
 --------0--1--0--------------------------|--1----1--1--1--1----1--1--1--|
 --0--3-----------3--0--0--0--0--0--0--0--|--1----1--1--1--1----1--1--1--|
 |--3--| |--3--| |--3--| |--3--| 

Q E E E Q E E E Q E E E Q E E E
 
 ------------------------------|------------------------------|
 ------------------------------|------------------------------|
 --4----4--4--4--4----4--4--4--|------------------------------|
 --4----4--4--4--4----4--4--4--|--4----4--4--4--4----4--4--4--|
 --2----2--2--2--2----2--2--2--|--4----4--4--4--4----4--4--4--|
 ------------------------------|--4----4--4--4--4----4--4--4--|
 |--3--| |--3--| |--3--| |--3--| |--3--| 

Q E E E E E E E E E Q E E E Q E E E
 
 ----------------------------------|------------------------------|
 ----------------------------------|------------------------------|
 --3----3--3--3--------------------|------------------------------|
 --3----3--3--3--------------------|--1----1--1--1--1----1--1--1--|
 --1----1--1--1--1--2--1-----------|--1----1--1--1--1----1--1--1--|
 -------------------------6--4--3--|--1----1--1--1--1----1--1--1--|
 |--3--| |--3--| |--3--| |--3--| 

Q E E E Q E E E Q E E E Q E E E
 
 ------------------------------|------------------------------|
 ------------------------------|------------------------------|
 --4----4--4--4--4----4--4--4--|------------------------------|
 --4----4--4--4--4----4--4--4--|--4----4--4--4--4----4--4--4--|
 --2----2--2--2--2----2--2--2--|--4----4--4--4--4----4--4--4--|
 ------------------------------|--4----4--4--4--4----4--4--4--|
 |--3--| |--3--| |--3--| |--3--| |--3--| |--3--| 

Q E E E Q E E E E E E E E E E E E E E E
 
 ------------------------------|--------------------------------------|
 ------------------------------|--------------------------------------|
 ------------------------------|--------------------------------------|
 --0----0--0--0--3----3--3--3--|--------------------------------------|
 --0----0--0--0--3----3--3--3--|--------------------------------------|
 --0----0--0--0--3----3--3--3--|--1--1--1--1--1--1--1--1--1--1--4--4--|
 |--3--| |--3--| |--3--| |--3--| |--3--| |--3--| |--3--| |--3--| 

[E] [E] [E] [E] [E] [E] [E] [E] [E] [E] [E] [E] [E] [E] [E] [E] [E] [E] [E] [E] [E] [E] [E] [E]  
 
 --------------------------------------|--------------------------------------|
 --------------------------------------|--------------------------------------|
 --------------------------------------|--------------------------------------|
 --------------------------------------|--------------------------------------|
 --2--2--2--2--2--2--2--2--2--2--2--2--|--------------------------------------|
 --------------------------------------|--4--4--4--4--4--4--4--4--4--4--4--4--|
 |--3--| |--3--| |--3--| |--3--| |--3--| |--3--| |--3--| |--3--| 

[E] [E] [E] [E] [E] [E] [E] [E] [E] [E] [E] [E] [E] [E] [E] [E] [E] [E] [E] [E] [E] [E] [E] [E]  
 
 --------------------------------------|--------------------------------------|
 --------------------------------------|--------------------------------------|
 --------------------------------------|--------------------------------------|
 --------------------------------------|--------------------------------------|
 --1--1--1--1--1--1--1--2--1-----------|--------------------------------------|
 -----------------------------6--4--3--|--1--1--1--1--1--1--1--1--1--1--4--4--|
 |--3--| |--3--| |--3--| |--3--| |--3--| |--3--| |--3--| |--3--| 

[E] [E] [E] [E] [E] [E] [E] [E] [E] [E] [E] [E] [E] [E] [E] [E] [E] [E] [E] [E] [E] [E] [E] [E]  
 
 --------------------------------------|--------------------------------------|
 --------------------------------------|--------------------------------------|
 --------------------------------------|--------------------------------------|
 --------------------------------------|--------------------------------------|
 --2--2--2--2--2--2--2--2--2--2--2--2--|--------------------------------------|
 --------------------------------------|--4--4--4--4--4--4--4--4--4--4--4--4--|

PM PM PM
 
 |--3--| |--3--| |--3--| |--3--| 

[E] [E] [E] [E] [E] [E] [E] [E] [E] [E] [E] [E] [E] [E] [E] [E] [E] [E] [E] [E]  
 
 --------------------------------------|--------------------------|
 --------------------------------------|--------------------------|
 --------------------------------------|-----------------3-----8--|
 --------------------------------------|--1--1--1--4--1--3--1--8--|
 --------------------------------------|--1--1--1--4--1--1--1--6--|
 --0--0--0--0--0--0--3--3--3--3--3--3--|--1--1--1--4--1-----1-----|

PM PM PM PM PM PM PM PM PM PM PM PM PM PM PM PM PM PM PM
 
 |--3--| |--3--| |--3--| |--3--| 

S S S E S S S E S S S E S S S E E E E E E E E E
 
 --------------------------------------------------|--------------------------|
 --------------------------------------------------|--------------------------|
 --------------------------------------------------|-----------------3-----8--|
 --------------------------------------------------|--1--1--1--4--1--3--1--8--|
 --5--5--5--5--5--5--5--5--5--5--5--5--5--5--5--5--|--1--1--1--4--1--1--1--6--|
 --------------------------------------------------|--1--1--1--4--1-----1-----|

PM PM PM PM PM PM PM PM PM PM PM PM PM PM PM PM PM PM PM PM
 
 |--3--| |--3--| |--3--| |--3--| 

S S S E S S S E S S S E S S S E E E E E E E E E
 
 --------------------------------------------------|--------------------------|
 --------------------------------------------------|--------------------------|
 --------------------------------------------------|-----------------3-----8--|
 --------------------------------------------------|--1--1--1--4--1--3--1--8--|
 --5--5--5--5--6--6--6--6--------------------------|--1--1--1--4--1--1--1--6--|
 --------------------------9--9--9--9--8--8--8--8--|--1--1--1--4--1-----1-----|

PM PM PM PM PM PM PM PM PM PM PM PM PM PM PM PM
 
 |--3--| |--3--| |--3--| |--3--| 

S S S E S S S E S S S E S S S E
 
 --------------------------------------------------|
 --------------------------------------------------|
 --------------------------------------------------|
 --------------------------------------------------|
 --5--5--5--5--5--5--5--5--5--5--5--5--5--5--5--5--|
 --------------------------------------------------|

PM PM PM
|--3--|
Q E S S S E S E S E H Q Q
 
 --------------------------------|---------------------|
 --------------------------------|---------------------|
 --4----L--4--4--4--4----4----4--|--3------------------|
 --4----L--4--4--4--4----4----4--|--3--------4----3----|
 --2----L--2--2--2--2----2----2--|--1--------4----3----|
 --------------------------------|-----------4----3----|

PM PM PM PM PM PM PM PM PM PM PM PM PM PM PM PM PM PM PM
 
 |--3--| |--3--| |--3--| |--3--| 

E E E E E E E E S S S E S S S E S S S E S S S E
 
 --------------------------|--------------------------------------------------|
 --------------------------|--------------------------------------------------|
 -----------------3-----8--|--------------------------------------------------|
 --1--1--1--4--1--3--1--8--|--------------------------------------------------|
 --1--1--1--4--1--1--1--6--|--5--5--5--5--5--5--5--5--5--5--5--5--5--5--5--5--|
 --1--1--1--4--1-----1-----|--------------------------------------------------|

PM PM PM PM PM PM PM PM PM PM PM PM PM PM PM PM PM PM PM
 
 |--3--| |--3--| |--3--| |--3--| 

E E E E E E E E S S S E S S S E S S S E S S S E
 
 --------------------------|--------------------------------------------------|
 --------------------------|--------------------------------------------------|
 -----------------3-----8--|--------------------------------------------------|
 --1--1--1--4--1--3--1--8--|--------------------------------------------------|
 --1--1--1--4--1--1--1--6--|--5--5--5--5--6--6--6--6--------------------------|
 --1--1--1--4--1-----1-----|--------------------------9--9--9--9--8--8--8--8--|

PM PM PM PM PM PM PM PM PM PM PM PM PM PM PM PM PM PM PM PM
 
 |--3--| |--3--| |--3--| |--3--| 

E E E E E E E E S S S E S S S E S S S E S S S E
 
 --------------------------|--------------------------------------------------|
 --------------------------|--------------------------------------------------|
 -----------------3-----8--|--------------------------------------------------|
 --1--1--1--4--1--3--1--8--|--------------------------------------------------|
 --1--1--1--4--1--1--1--6--|--5--5--5--5--5--5--5--5--5--5--5--5--5--5--5--5--|
 --1--1--1--4--1-----1-----|--------------------------------------------------|

PM PM PM
|--3--|
Q E S S S E S E S E H Q Q W
 
 --------------------------------|---------------------|-------------------|
 --------------------------------|---------------------|-------------------|
 --4----L--4--4--4--4----4----4--|--3------------------|-------------------|
 --4----L--4--4--4--4----4----4--|--3--------4----3----|--1----------------|
 --2----L--2--2--2--2----2----2--|--1--------4----3----|--1----------------|
 --------------------------------|-----------4----3----|--1----------------|

W W W
 
 -------------------|-------------------|-------------------|-------------------|
 -------------------|-------------------|-------------------|-------------------|
 -------------------|-------------------|-------------------|-------------------|
 --L----------------|--L----------------|--L----------------|-------------------|
 --L----------------|--L----------------|--L----------------|-------------------|
 --L----------------|--L----------------|--L----------------|-------------------|

Q Q Q
 
 -------------------|-------------------|-------------------|-----------------|
 -------------------|-------------------|-------------------|-------7---------|
 -------------------|-------------------|-------------------|------------8----|
 -------------------|-------------------|-------------------|-----------------|
 -------------------|-------------------|-------------------|-----------------|
 -------------------|-------------------|-------------------|-----------------|

Q Q Q H Q H Q H Q
 
 -----------------|----------------|--13--------L----|--14--------L----|
 -------7---------|--0--------L----|-----------------|-----------------|
 --L--------------|----------------|-----------------|-----------------|
 ------------8----|----------------|-----------------|-----------------|
 -----------------|----------------|-----------------|-----------------|
 -----------------|----------------|-----------------|-----------------|

H Q Q H E E E E E E
 
 --11--------L----|--10-----L--------|--------------------------|
 -----------------|--------11--------|--11--12--11--12--11--12--|
 -----------------|------------------|--------------------------|
 -----------------|------------------|--------------------------|
 -----------------|------------------|--------------------------|
 -----------------|------------------|--------------------------|

Q Q Q Q Q Q H Q H Q
 
 -----------------|-----------------|----------------|--13--------L----|
 -------7---------|-------7---------|--0--------L----|-----------------|
 ------------8----|--L--------------|----------------|-----------------|
 -----------------|------------8----|----------------|-----------------|
 -----------------|-----------------|----------------|-----------------|
 -----------------|-----------------|----------------|-----------------|

H Q H Q Q H
 
 --14--------L----|--11--------L----|--10-----L--------|
 -----------------|-----------------|--------11--------|
 -----------------|-----------------|------------------|
 -----------------|-----------------|------------------|
 -----------------|-----------------|------------------|
 -----------------|-----------------|------------------|

E E E E E E Q Q Q Q Q E E
 
 --------------------------|-------------------|--------------------|
 --11--12--11--12--11--12--|--11---------------|--9----11----12-----|
 --------------------------|--------11----8----|--------------------|
 --------------------------|-------------------|--------------------|
 --------------------------|-------------------|--------------------|
 --------------------------|-------------------|--------------------|

H Q H Q H Q H Q
 
 ------------------|-------------------|----------------|----------------|
 --11b--------L----|--L----------------|----------------|----------------|
 ------------------|-------------------|----------------|----------------|
 ------------------|-----------/13\----|--1--------1----|--4--------4----|
 ------------------|-----------/13\----|--1--------1----|--4--------4----|
 ------------------|-----------/13\----|--1--------1----|--4--------4----|

H Q E E E E E E H Q H Q
 
 ----------------|---------------------|----------------|----------------|
 ----------------|---------------------|----------------|----------------|
 ----------------|---------------------|----------------|----------------|
 --0--------0----|---------------------|--1--------1----|--4--------4----|
 --0--------0----|---------------------|--1--------1----|--4--------4----|
 --0--------0----|--/8--9--8--9--8--9--|--1--------1----|--4--------4----|

PM PM PM PM PM PM
H Q E E E E E E E S S E E E E
 
 ----------------|---------------------|-----------------------|
 ----------------|---------------------|-----------------------|
 ----------------|---------------------|-----------------------|
 --0--------0----|---------------------|--1--1--1--1--1--1--1--|
 --0--------0----|---------------------|--1--1--1--1--1--1--1--|
 --0--------0----|--/8--9--8--9--8--9--|--1--1--1--1--1--1--1--|

PM PM PM PM PM PM PM PM PM PM PM PM
E S S E E E E E S S E E E E E E E E E E
 
 -----------------------|-----------------------|---------------------|
 -----------------------|-----------------------|---------------------|
 -----------------------|-----------------------|---------------------|
 --4--4--4--4--4--4--4--|--0--0--0--0--0--0--0--|---------------------|
 --4--4--4--4--4--4--4--|--0--0--0--0--0--0--0--|---------------------|
 --4--4--4--4--4--4--4--|--0--0--0--0--0--0--0--|--/8--9--8--9--8--9--|

PM PM PM PM PM PM PM PM PM PM PM PM PM PM PM PM PM PM
E S S E E E E E S S E E E E E S S E E E E
 
 -----------------------|-----------------------|-----------------------|
 -----------------------|-----------------------|-----------------------|
 -----------------------|-----------------------|-----------------------|
 --1--1--1--1--1--1--1--|--4--4--4--4--4--4--4--|--0--0--0--0--0--0--0--|
 --1--1--1--1--1--1--1--|--4--4--4--4--4--4--4--|--0--0--0--0--0--0--0--|
 --1--1--1--1--1--1--1--|--4--4--4--4--4--4--4--|--0--0--0--0--0--0--0--|
 |--3--| |--3--| |--3--| 

[E] [E] [E] [E] [E] [E] [E] [E] [E] [E] [E] [E] [E] [E] [E]  
 
 ---------------------|-----------------------------|
 ---------------------|-----------------------------|
 ---------------------|-----------------------------|
 ---------------------|-----------------------------|
 ---------------------|--5--5--6--5--5--6--5--5--6--|
 --/8--9--8--9--8--9--|-----------------------------|

PM PM PM PM PM PM PM PM PM PM PM PM PM PM
 
 |-3| |-3| |--3--| |--3--| |--3--| |--3--| |--3--| 

E S S E E E E E E E E E E E E E E E E
 
 --------------------------------|-----------------------------|
 --------------------------------|-----------------------------|
 --------------------------------|-----------------------------|
 --0--0--0--0--6--0--0--8--0--0--|--6--0--4--0--0--0--6--0--0--|
 --------------------------------|-----------------------------|
 --------------------------------|-----------------------------|
 |--3--| |--3--| |--3--| |--3--| 

Q E E E Q E E E Q E E E Q E E E
 
 ------------------------------|------------------------------|
 ------------------------------|------------------------------|
 ------------------------------|--4----4--4--4--4----4--4--4--|
 --1----1--1--1--1----1--1--1--|--4----4--4--4--4----4--4--4--|
 --1----1--1--1--1----1--1--1--|--2----2--2--2--2----2--2--2--|
 --1----1--1--1--1----1--1--1--|------------------------------|
 |--3--| |--3--| |--3--| |--3--| |--3--| 

Q E E E Q E E E Q E E E E E E E E E
 
 ------------------------------|----------------------------------|
 ------------------------------|----------------------------------|
 ------------------------------|--3----3--3--3--------------------|
 --4----4--4--4--4----4--4--4--|--3----3--3--3--------------------|
 --4----4--4--4--4----4--4--4--|--1----1--1--1--1--2--1-----------|
 --4----4--4--4--4----4--4--4--|-------------------------6--4--3--|
 |--3--| |--3--| |--3--| |--3--| 

Q E E E Q E E E Q E E E Q E E E
 
 ------------------------------|------------------------------|
 ------------------------------|------------------------------|
 ------------------------------|--4----4--4--4--4----4--4--4--|
 --1----1--1--1--1----1--1--1--|--4----4--4--4--4----4--4--4--|
 --1----1--1--1--1----1--1--1--|--2----2--2--2--2----2--2--2--|
 --1----1--1--1--1----1--1--1--|------------------------------|
 |--3--| |--3--| |--3--| |--3--| 

Q E E E Q E E E Q E E E Q E E E
 
 ------------------------------|------------------------------|
 ------------------------------|------------------------------|
 ------------------------------|------------------------------|
 --4----4--4--4--4----4--4--4--|--0----0--0--0--3----3--3--3--|
 --4----4--4--4--4----4--4--4--|--0----0--0--0--3----3--3--3--|
 --4----4--4--4--4----4--4--4--|--0----0--0--0--3----3--3--3--|
 |--3--| |--3--| |--3--| |--3--| |--3--| |--3--| |--3--| |--3--| 

[E] [E] [E] [E] [E] [E] [E] [E] [E] [E] [E] [E] [E] [E] [E] [E] [E] [E] [E] [E] [E] [E] [E] [E]  
 
 --------------------------------------|--------------------------------------|
 --------------------------------------|--------------------------------------|
 --------------------------------------|--------------------------------------|
 --------------------------------------|--------------------------------------|
 --------------------------------------|--2--2--2--2--2--2--2--2--2--2--2--2--|
 --1--1--1--1--1--1--1--1--1--1--4--4--|--------------------------------------|
 |--3--| |--3--| |--3--| |--3--| |--3--| |--3--| |--3--| |--3--| 

[E] [E] [E] [E] [E] [E] [E] [E] [E] [E] [E] [E] [E] [E] [E] [E] [E] [E] [E] [E] [E] [E] [E] [E]  
 
 --------------------------------------|--------------------------------------|
 --------------------------------------|--------------------------------------|
 --------------------------------------|--------------------------------------|
 --------------------------------------|--------------------------------------|
 --------------------------------------|--1--1--1--1--1--1--1--2--1-----------|
 --4--4--4--4--4--4--4--4--4--4--4--4--|-----------------------------6--4--3--|
 |--3--| |--3--| |--3--| |--3--| |--3--| |--3--| |--3--| |--3--| 

[E] [E] [E] [E] [E] [E] [E] [E] [E] [E] [E] [E] [E] [E] [E] [E] [E] [E] [E] [E] [E] [E] [E] [E]  
 
 --------------------------------------|--------------------------------------|
 --------------------------------------|--------------------------------------|
 --------------------------------------|--------------------------------------|
 --------------------------------------|--------------------------------------|
 --------------------------------------|--2--2--2--2--2--2--2--2--2--2--2--2--|
 --1--1--1--1--1--1--1--1--1--1--4--4--|--------------------------------------|
 |--3--| |--3--| |--3--| |--3--| |--3--| |--3--| |--3--| |--3--| 

[E] [E] [E] [E] [E] [E] [E] [E] [E] [E] [E] [E] [E] [E] [E] [E] [E] [E] [E] [E] [E] [E] [E] [E]  
 
 --------------------------------------|--------------------------------------|
 --------------------------------------|--------------------------------------|
 --------------------------------------|--------------------------------------|
 --------------------------------------|--------------------------------------|
 --------------------------------------|--------------------------------------|
 --4--4--4--4--4--4--4--4--4--4--4--4--|--0--0--0--0--0--0--3--3--3--3--3--3--|

PM PM PM PM PM PM PM PM PM PM PM PM PM PM PM
[E] [E] [E] [E] [E] [E] [E] [E] [E] [E] [E] [E] [E] [E] [E] [E] [E] [E]  
 
 --------------------|--------------------|--------------------|
 --------------------|--------------------|--------------------|
 --------------------|--------------------|--------------------|
 --1--1--1--1--1--1--|--4--4--4--4--4--4--|--0--0--0--0--0--0--|
 --1--1--1--1--1--1--|--4--4--4--4--4--4--|--0--0--0--0--0--0--|
 --1--1--1--1--1--1--|--4--4--4--4--4--4--|--0--0--0--0--0--0--|

PM PM PM PM PM PM PM PM PM PM
[E] [E] [E] [E] [E] [E] [E] [E] [E] [E] [E] [E] [E] [E] [E] [E] [E] [E]  
 
 --------------------|--------------------|--------------------|
 --------------------|--------------------|--------------------|
 --7--7--7--7--7--7--|--------------------|--------------------|
 --x--x--x--x--x--x--|--1--1--1--1--1--1--|--4--4--4--4--4--4--|
 --5--5--5--5--5--5--|--1--1--1--1--1--1--|--4--4--4--4--4--4--|
 --------------------|--1--1--1--1--1--1--|--4--4--4--4--4--4--|

PM PM PM PM PM PM PM PM PM PM
[E] [E] [E] [E] [E] [E] [E] [E] [E] [E] [E] [E] [E] [E] [E] [E] [E] [E]  
 
 --------------------|--------------------|--------------------|
 --------------------|--------------------|--------------------|
 --------------------|--7--7--7--7--7--7--|--------------------|
 --0--0--0--0--0--0--|--x--x--x--x--x--x--|--1--1--1--1--1--1--|
 --0--0--0--0--0--0--|--5--5--5--5--5--5--|--1--1--1--1--1--1--|
 --0--0--0--0--0--0--|--------------------|--1--1--1--1--1--1--|

PM PM PM PM PM PM PM PM PM PM
[E] [E] [E] [E] [E] [E] [E] [E] [E] [E] [E] [E] [E] [E] [E] [E] [E] [E]  
 
 --------------------|--------------------|--------------------|-----|-----|
 --------------------|--------------------|--------------------|-----|-----|
 --------------------|--------------------|--7--7--7--7--7--7--|-----|-----|
 --4--4--4--4--4--4--|--0--0--0--0--0--0--|--x--x--x--x--x--x--|-----|-----|
 --4--4--4--4--4--4--|--0--0--0--0--0--0--|--5--5--5--5--5--5--|-----|-----|
 --4--4--4--4--4--4--|--0--0--0--0--0--0--|--------------------|-----|-----|
 -----|-----|-----|-----||
 -----|-----|-----|-----||
 -----|-----|-----|-----||
 -----|-----|-----|-----||
 -----|-----|-----|-----||
 -----|-----|-----|-----||

Guitar 2
[E] [E] [E] [E] [E] [E] [E] [E] [E] [E] [E] [E] [E] [E] [E] [E] [E] [E]  
 
 D#||---------------------|--------------------------|--------------------------|
 A#||------7-----7-----7--|------11------11------11--|------12------12------12--|
 F#||--/8-----8-----8-----|--11------11------11------|--13------13------13------|
 C#||---------------------|--------------------------|--------------------------|
 G#||---------------------|--------------------------|--------------------------|
 C#||---------------------|--------------------------|--------------------------|

[E] [E] [E] [E] [E] [E] [E] [E] [E] [E] [E] [E] [E] [E] [E] [E] [E] [E]  
 
 -----------------------|--------------------------|--------------------|
 ------9------9------9--|------11------11------11--|-----7-----7-----7--|
 --10-----10-----10-----|--11------11------11------|--8-----8-----8-----|
 -----------------------|--------------------------|--------------------|
 -----------------------|--------------------------|--------------------|
 -----------------------|--------------------------|--------------------|

[E] [E] [E] [E] [E] [E] [E] [E] [E] [E] [E] [E] [E] [E] [E] [E] [E] [E]  
 
 -----------------------|--------------------|---------------------|
 ------9------9------9--|-----6-----6--4--6--|------7-----7-----7--|
 --10-----10-----10-----|--7-----7-----------|--/8-----8-----8-----|
 -----------------------|--------------------|---------------------|
 -----------------------|--------------------|---------------------|
 -----------------------|--------------------|---------------------|

[E] [E] [E] [E] [E] [E] [E] [E] [E] [E] [E] [E] [E] [E] [E] [E] [E] [E]  
 
 --------------------------|--------------------------|-----------------------|
 ------11------11------11--|------12------12------12--|------9------9------9--|
 --11------11------11------|--13------13------13------|--10-----10-----10-----|
 --------------------------|--------------------------|-----------------------|
 --------------------------|--------------------------|-----------------------|
 --------------------------|--------------------------|-----------------------|

[E] [E] [E] [E] [E] [E] [E] [E] [E] [E] [E] [E] [E] [E] [E] [E] [E] [E]  
 
 --------------------------|--------------------|-----------------------|
 ------11------11------11--|-----7-----7-----7--|------9------9------9--|
 --11------11------11------|--8-----8-----8-----|--10-----10-----10-----|
 --------------------------|--------------------|-----------------------|
 --------------------------|--------------------|-----------------------|
 --------------------------|--------------------|-----------------------|

E E E E E E Q Q Q Q Q Q Q Q Q
 
 --------------------|-----------------|-----------------|-----------------|
 -----6-----6--4--6--|--7----4---------|-----------------|-----------------|
 --7-----7-----------|------------4----|-----------------|-----------------|
 --------------------|-----------------|--4----1---------|-------1----4----|
 --------------------|-----------------|------------2----|--1--------------|
 --------------------|-----------------|-----------------|-----------------|

Q Q Q E E E E E E E E E E E E
 
 -----------------|---------------------|--------------------------|
 -------3----6----|------7-----7-----7--|------11------11------11--|
 --3--------------|--/8-----8-----8-----|--11------11------11------|
 -----------------|---------------------|--------------------------|
 -----------------|---------------------|--------------------------|
 -----------------|---------------------|--------------------------|

[E] [E] [E] [E] [E] [E] [E] [E] [E] [E] [E] [E] [E] [E] [E] [E] [E] [E]  
 
 --------------------------|-----------------------|--------------------------|
 ------12------12------12--|------9------9------9--|------11------11------11--|
 --13------13------13------|--10-----10-----10-----|--11------11------11------|
 --------------------------|-----------------------|--------------------------|
 --------------------------|-----------------------|--------------------------|
 --------------------------|-----------------------|--------------------------|

[E] [E] [E] [E] [E] [E] [E] [E] [E] [E] [E] [E] [E] [E] [E] [E] [E] [E]  
 
 --------------------|-----------------------|--------------------|
 -----7-----7-----7--|------9------9------9--|-----6-----6--6--4--|
 --8-----8-----8-----|--10-----10-----10-----|--7-----7-----------|
 --------------------|-----------------------|--------------------|
 --------------------|--------------

Important: The song above is NOT stored on the Chordie server. The original song is hosted at www.guitaretab.com. Chordie works as a search engine and provides on-the-fly formatting. Chordie does not index songs against artists'/composers' will. To remove this song please click here.

Text color:
Chord color:
Chord grids: 
Font size:    
Page size: 

E
Rate #3 of 3 versions

Jango Player

Login - add to songbook

SHARE PAGE  



You need to log in to post comments