Guitar Tabs, Chords and Lyrics
Server problems seems to be fixed. Chordie has been experiencing problems with songs disappearing. These issues now seems to be fixed, but still verifying the fix. If you find anything strange, please email admin@chordie.com.


Resurrect the Sun  Black Veil Brides

 
 ----------------------------------------------------------------------------

Resurrect the Sun
Black Veil Brides
 
 ----------------------------------------------------------------------------

I wasn?t originally going to learn this song, but since I got more requests for this
song than any other I thought I would give it a shot. This turned out to be one of my
favorite Black Veil Brides songs to date. The guitar work is definitely a challenge, so
if you are a novice guitar player I would prefer you skip the lead parts. Enjoy!
Username: dkm817 (same on X box live)
Youtube Cover: http://www.youtube.com/watch?v=xTnWmgSXWW8&feature=youtu.be
Email: guitardrums@rockfan.com
Guitar 1 Rhythmic (C G C F A D)
Guitar 2 Lead (C G C F A D)
Guitar 3 Acoustic (C G C F A D)
NOTE: This was exported off of guitar pro.
Guitar 1
Q Q Q Q Q Q Q Q Q
 
 D||--------------14----|--------------14----|--------------14----|
 A||--------15----------|--------15----------|--------15----------|
 F||--16----------------|--16----------------|--14----------------|
 C||--------------------|--------------------|--------------------|
 G||--------------------|--------------------|--------------------|
 C||--------------------|--------------------|--------------------|

Q Q Q Q Q Q Q Q Q
 
 --------------14----|--------------14----|--------------14----|
 --------15----------|--------------15----|--------------15----|
 --14----------------|--------16----------|--------16----------|
 --------------------|--17----------------|--17----------------|
 --------------------|--------------------|--------------------|
 --------------------|--------------------|--------------------|

Q Q Q Q Q Q Q Q Q
 
 --------------14----|--------------14----|--------------14----|
 --------------15----|--------------14----|--------15----------|
 --------16----------|--------16----------|--16----------------|
 --14----------------|--16----------------|--------------------|
 --------------------|--------------------|--------------------|
 --------------------|--------------------|--------------------|

Q Q Q Q Q Q Q Q Q
 
 --------------14----|--------------14----|--------------14----|
 --------15----------|--------15----------|--------15----------|
 --16----------------|--14----------------|--14----------------|
 --------------------|--------------------|--------------------|
 --------------------|--------------------|--------------------|
 --------------------|--------------------|--------------------|

Q Q Q Q Q Q Q Q Q
 
 --------------14----|--------------14----|--------------14----|
 --------------15----|--------------15----|--------------15----|
 --------16----------|--------16----------|--------16----------|
 --17----------------|--17----------------|--14----------------|
 --------------------|--------------------|--------------------|
 --------------------|--------------------|--------------------|

Q Q Q Q Q Q Q Q Q
 
 --------------14----|--------------14----|--------------14----|
 --------------14----|--------15----------|--------15----------|
 --------16----------|--16----------------|--16----------------|
 --16----------------|--------------------|--------------------|
 --------------------|--------------------|--------------------|
 --------------------|--------------------|--------------------|

Q Q Q Q Q Q Q Q Q
 
 --------------14----|--------------14----|--------------14----|
 --------15----------|--------15----------|--------------15----|
 --14----------------|--14----------------|--------16----------|
 --------------------|--------------------|--17----------------|
 --------------------|--------------------|--------------------|
 --------------------|--------------------|--------------------|

Q Q Q Q Q Q Q Q Q
 
 --------------14----|--------------14----|--------------14----|
 --------------15----|--------------15----|--------------14----|
 --------16----------|--------16----------|--------16----------|
 --17----------------|--14----------------|--14----------------|
 --------------------|--------------------|--------------------|
 --------------------|--------------------|--------------------|

Q Q Q Q Q Q Q Q Q
 
 --------------14----|--------------14----|--------------14----|
 --------15----------|--------15----------|--------15----------|
 --16----------------|--16----------------|--14----------------|
 --------------------|--------------------|--------------------|
 --------------------|--------------------|--------------------|
 --------------------|--------------------|--------------------|

Q Q Q Q Q Q Q Q Q
 
 --------------14----|--------------14----|--------------14----|
 --------15----------|--------------15----|--------------15----|
 --14----------------|--------16----------|--------16----------|
 --------------------|--17----------------|--17----------------|
 --------------------|--------------------|--------------------|
 --------------------|--------------------|--------------------|

Q Q Q Q Q Q Q Q Q
 
 --------------14----|--------------14----|--------------14----|
 --------------15----|--------------14----|--------15----------|
 --------16----------|--------16----------|--16----------------|
 --14----------------|--14----------------|--------------------|
 --------------------|--------------------|--------------------|
 --------------------|--------------------|--------------------|

Q Q Q Q Q Q Q Q Q
 
 --------------14----|--------------14----|--------------14----|
 --------15----------|--------15----------|--------15----------|
 --16----------------|--14----------------|--14----------------|
 --------------------|--------------------|--------------------|
 --------------------|--------------------|--------------------|
 --------------------|--------------------|--------------------|

Q Q Q Q Q Q Q Q Q
 
 --------------14----|--------------14----|--------------14----|
 --------------15----|--------------15----|--------------15----|
 --------16----------|--------16----------|--------16----------|
 --17----------------|--17----------------|--14----------------|
 --------------------|--------------------|--------------------|
 --------------------|--------------------|--------------------|

Q Q Q Q Q Q Q Q Q
 
 --------------14----|--------------14----|--------------14----|
 --------------14----|--------15----------|--------15----------|
 --------16----------|--16----------------|--16----------------|
 --14----------------|--------------------|--------------------|
 --------------------|--------------------|--------------------|
 --------------------|--------------------|--------------------|

Q Q Q Q Q Q Q Q Q
 
 --------------14----|--------------14----|--------------14----|
 --------15----------|--------15----------|--------12----14----|
 --13----------------|--------------------|--14----------------|
 --------------------|--14----------------|--------------------|
 --------------------|--------------------|--------------------|
 --------------------|--------------------|--------------------|

Q Q Q Q Q Q H Q
 
 --------------14----|--------------14----|--14--------L----|
 --------12----14----|--------14----------|--14--------L----|
 --14----------------|--15----------------|--15--------L----|
 --------------------|--------------------|-----------------|
 --------------------|--------------------|-----------------|
 --------------------|--------------------|-----------------|

[E] [E] [E] [E] [E] [E] [E] [E] [E] [E] [E] [E] [E] [E] [E] [E]  
 
 --------------------------|--------------------------|
 --------------------------|--------------------------|
 --4--4--4--4--4--4--4--4--|--------------------------|
 --4--4--4--4--4--4--4--4--|--5--5--5--5--5--5--5--5--|
 --2--2--2--2--2--2--2--2--|--5--5--5--5--5--5--5--5--|
 --------------------------|--5--5--5--5--5--5--5--5--|

[E] [E] [E] [E] [E] [E] [E] [E] [E] [E] [E] [E] [E] [E] [E] [E]  
 
 --------------------------|--------------------------|
 --------------------------|--------------------------|
 --------------------------|--2--2--2--2--2--2--2--2--|
 --0--0--0--0--0--0--0--0--|--2--2--2--2--2--2--2--2--|
 --0--0--0--0--0--0--0--0--|--0--0--0--0--0--0--0--0--|
 --0--0--0--0--0--0--0--0--|--------------------------|

[E] [E] [E] [E] [E] [E] [E] [E] [E] [E] [E] [E] [E] [E] [E] [E]  
 
 --------------------------|--------------------------|
 --------------------------|--------------------------|
 --4--4--4--4--4--4--4--4--|--------------------------|
 --4--4--4--4--4--4--4--4--|--5--5--5--5--5--5--5--5--|
 --2--2--2--2--2--2--2--2--|--5--5--5--5--5--5--5--5--|
 --------------------------|--5--5--5--5--5--5--5--5--|

[E] [E] [E] [E] [E] [E] [E] [E] [E] [E] [E] [E] [E] [E] [E] [E]  
 
 --------------------------|--------------------------|
 --------------------------|--------------------------|
 --------------------------|--2--2--2--2--2--2--2--2--|
 --2--2--2--2--2--2--2--2--|--2--2--2--2--2--2--2--2--|
 --2--2--2--2--2--2--2--2--|--0--0--0--0--0--0--0--0--|
 --2--2--2--2--2--2--2--2--|--------------------------|

[E] [E] [E] [E] [E] [E] [E] [E] [E] [E] [E] [E] [E] [E] [E] [E]  
 
 --------------------------|--------------------------|
 --------------------------|--------------------------|
 --4--4--4--4--4--4--4--4--|--------------------------|
 --4--4--4--4--4--4--4--4--|--5--5--5--5--5--5--5--5--|
 --2--2--2--2--2--2--2--2--|--5--5--5--5--5--5--5--5--|
 --------------------------|--5--5--5--5--5--5--5--5--|

[E] [E] [E] [E] [E] [E] [E] [E] [E] [E] [E] [E] [E] [E] [E] [E]  
 
 --------------------------|--------------------------|
 --------------------------|--------------------------|
 --------------------------|--2--2--2--2--6--6--6--6--|
 --0--0--0--0--0--0--0--0--|--2--2--2--2--6--6--6--6--|
 --0--0--0--0--0--0--0--0--|--0--0--0--0--4--4--4--4--|
 --0--0--0--0--0--0--0--0--|--------------------------|

[E] [E] [E] [E] [E] [E] [E] [E] [E] [E] [E] [E] [E] [E] [E] [E]  
 
 --------------------------|--------------------------|
 --------------------------|--------------------------|
 --4--4--4--4--4--4--4--4--|--------------------------|
 --4--4--4--4--4--4--4--4--|--5--5--5--5--5--5--5--5--|
 --2--2--2--2--2--2--2--2--|--5--5--5--5--5--5--5--5--|
 --------------------------|--5--5--5--5--5--5--5--5--|

E E E E E E E E H Q Q Q Q
 
 --------------------------|----------------|--------------14----|
 --------------------------|----------------|--------15----------|
 --------------------------|----------------|--16----------------|
 --0--0--0--0--0--0--0--0--|--4--------L----|--------------------|
 --0--0--0--0--0--0--0--0--|--4--------L----|--------------------|
 --0--0--0--0--0--0--0--0--|--4--------L----|--------------------|

Q Q Q Q Q Q Q Q Q
 
 --------------14----|--------------14----|--------------14----|
 --------15----------|--------15----------|--------15----------|
 --16----------------|--14----------------|--14----------------|
 --------------------|--------------------|--------------------|
 --------------------|--------------------|--------------------|
 --------------------|--------------------|--------------------|

Q Q Q Q Q Q Q Q Q
 
 --------------14----|--------------14----|--------------14----|
 --------------15----|--------------15----|--------------15----|
 --------16----------|--------16----------|--------16----------|
 --17----------------|--17----------------|--14----------------|
 --------------------|--------------------|--------------------|
 --------------------|--------------------|--------------------|

Q Q Q Q Q Q Q Q Q
 
 --------------14----|--------------14----|--------------14----|
 --------------14----|--------15----------|--------15----------|
 --------16----------|--16----------------|--16----------------|
 --14----------------|--------------------|--------------------|
 --------------------|--------------------|--------------------|
 --------------------|--------------------|--------------------|

Q Q Q Q Q Q Q Q Q
 
 --------------14----|--------------14----|--------------14----|
 --------15----------|--------15----------|--------------15----|
 --14----------------|--14----------------|--------16----------|
 --------------------|--------------------|--17----------------|
 --------------------|--------------------|--------------------|
 --------------------|--------------------|--------------------|

Q Q Q Q Q Q Q Q Q
 
 --------------14----|--------------14----|--------------14----|
 --------------15----|--------------15----|--------------14----|
 --------16----------|--------16----------|--------16----------|
 --17----------------|--14----------------|--14----------------|
 --------------------|--------------------|--------------------|
 --------------------|--------------------|--------------------|

Q Q Q Q Q Q Q Q Q
 
 --------------14----|--------------14----|--------------14----|
 --------15----------|--------15----------|--------15----------|
 --16----------------|--16----------------|--14----------------|
 --------------------|--------------------|--------------------|
 --------------------|--------------------|--------------------|
 --------------------|--------------------|--------------------|

Q Q Q Q Q Q Q Q Q
 
 --------------14----|--------------14----|--------------14----|
 --------15----------|--------------15----|--------------15----|
 --14----------------|--------16----------|--------16----------|
 --------------------|--17----------------|--17----------------|
 --------------------|--------------------|--------------------|
 --------------------|--------------------|--------------------|

Q Q Q Q Q Q Q Q Q
 
 --------------14----|--------------14----|--------------14----|
 --------------15----|--------------14----|--------15----------|
 --------16----------|--------16----------|--16----------------|
 --14----------------|--14----------------|--------------------|
 --------------------|--------------------|--------------------|
 --------------------|--------------------|--------------------|

Q Q Q Q Q Q Q Q Q
 
 --------------14----|--------------14----|--------------14----|
 --------15----------|--------15----------|--------15----------|
 --16----------------|--14----------------|--14----------------|
 --------------------|--------------------|--------------------|
 --------------------|--------------------|--------------------|
 --------------------|--------------------|--------------------|

Q Q Q Q Q Q Q Q Q
 
 --------------14----|--------------14----|--------------14----|
 --------------15----|--------------15----|--------------15----|
 --------16----------|--------16----------|--------16----------|
 --17----------------|--17----------------|--14----------------|
 --------------------|--------------------|--------------------|
 --------------------|--------------------|--------------------|

Q Q Q Q Q Q Q Q Q
 
 --------------14----|--------------14----|--------------14----|
 --------------14----|--------15----------|--------15----------|
 --------16----------|--16----------------|--16----------------|
 --14----------------|--------------------|--------------------|
 --------------------|--------------------|--------------------|
 --------------------|--------------------|--------------------|

Q Q Q Q Q Q Q Q Q
 
 --------------14----|--------------14----|--------------14----|
 --------15----------|--------15----------|--------12----14----|
 --13----------------|--------------------|--14----------------|
 --------------------|--14----------------|--------------------|
 --------------------|--------------------|--------------------|
 --------------------|--------------------|--------------------|

Q Q Q Q Q Q Q Q Q
 
 --------------14----|--------------14----|--------------14----|
 --------12----14----|--------14----------|--------14----------|
 --14----------------|--15----------------|--15----------------|
 --------------------|--------------------|--------------------|
 --------------------|--------------------|--------------------|
 --------------------|--------------------|--------------------|

[E] [E] [E] [E] [E] [E] [E] [E] [E] [E] [E] [E] [E] [E] [E] [E]  
 
 --------------------------|--------------------------|
 --------------------------|--------------------------|
 --4--4--4--4--4--4--4--4--|--------------------------|
 --4--4--4--4--4--4--4--4--|--5--5--5--5--5--5--5--5--|
 --2--2--2--2--2--2--2--2--|--5--5--5--5--5--5--5--5--|
 --------------------------|--5--5--5--5--5--5--5--5--|

[E] [E] [E] [E] [E] [E] [E] [E] [E] [E] [E] [E] [E] [E] [E] [E]  
 
 --------------------------|--------------------------|
 --------------------------|--------------------------|
 --------------------------|--2--2--2--2--2--2--2--2--|
 --0--0--0--0--0--0--0--0--|--2--2--2--2--2--2--2--2--|
 --0--0--0--0--0--0--0--0--|--0--0--0--0--0--0--0--0--|
 --0--0--0--0--0--0--0--0--|--------------------------|

[E] [E] [E] [E] [E] [E] [E] [E] [E] [E] [E] [E] [E] [E] [E] [E]  
 
 --------------------------|--------------------------|
 --------------------------|--------------------------|
 --4--4--4--4--4--4--4--4--|--------------------------|
 --4--4--4--4--4--4--4--4--|--5--5--5--5--5--5--5--5--|
 --2--2--2--2--2--2--2--2--|--5--5--5--5--5--5--5--5--|
 --------------------------|--5--5--5--5--5--5--5--5--|

[E] [E] [E] [E] [E] [E] [E] [E] [E] [E] [E] [E] [E] [E] [E] [E]  
 
 --------------------------|--------------------------|
 --------------------------|--------------------------|
 --------------------------|--2--2--2--2--2--2--2--2--|
 --2--2--2--2--2--2--2--2--|--2--2--2--2--2--2--2--2--|
 --2--2--2--2--2--2--2--2--|--0--0--0--0--0--0--0--0--|
 --2--2--2--2--2--2--2--2--|--------------------------|

[E] [E] [E] [E] [E] [E] [E] [E] [E] [E] [E] [E] [E] [E] [E] [E]  
 
 --------------------------|--------------------------|
 --------------------------|--------------------------|
 --4--4--4--4--4--4--4--4--|--------------------------|
 --4--4--4--4--4--4--4--4--|--5--5--5--5--5--5--5--5--|
 --2--2--2--2--2--2--2--2--|--5--5--5--5--5--5--5--5--|
 --------------------------|--5--5--5--5--5--5--5--5--|

[E] [E] [E] [E] [E] [E] [E] [E] [E] [E] [E] [E] [E] [E] [E] [E]  
 
 --------------------------|--------------------------|
 --------------------------|--------------------------|
 --------------------------|--2--2--2--2--6--6--6--6--|
 --0--0--0--0--0--0--0--0--|--2--2--2--2--6--6--6--6--|
 --0--0--0--0--0--0--0--0--|--0--0--0--0--4--4--4--4--|
 --0--0--0--0--0--0--0--0--|--------------------------|

[E] [E] [E] [E] [E] [E] [E] [E] [E] [E] [E] [E] [E] [E] [E] [E]  
 
 --------------------------|--------------------------|
 --------------------------|--------------------------|
 --4--4--4--4--4--4--4--4--|--------------------------|
 --4--4--4--4--4--4--4--4--|--5--5--5--5--5--5--5--5--|
 --2--2--2--2--2--2--2--2--|--5--5--5--5--5--5--5--5--|
 --------------------------|--5--5--5--5--5--5--5--5--|

PM PM
E E E E E E E E Q Q E E Q Q Q
 
 --------------------------|-----|------------------|-----------------|
 --------------------------|-----|------------------|-----------------|
 --------------------------|-----|------------------|-----------------|
 --0--0--0--0--0--0--0--0--|-----|--4----4----2--4--|--5----5----2----|
 --0--0--0--0--0--0--0--0--|-----|--4----4----2--4--|--5----5----2----|
 --0--0--0--0--0--0--0--0--|-----|--4----4----2--4--|--5----5----2----|

PM PM PM PM
Q Q E E S S S S S S S S S S S S Q Q E E
 
 ------------------|----------------------6-9-|------------------|
 ------------------|------------------5-8-----|------------------|
 ------------------|------6-9-----6-9---------|------------------|
 --4----4----2--4--|--5-8-----5-8-------------|--4----4----2--4--|
 --4----4----2--4--|--------------------------|--4----4----2--4--|
 --4----4----2--4--|--------------------------|--4----4----2--4--|

PM PM PM PM
Q Q E E Q Q E E S S S S S S S S S S S S
 
 ------------------|------------------|----------------------6-9-|----|----|----|
 ------------------|------------------|------------------5-8-----|----|----|----|
 ------------------|------------------|------6-9-----6-9---------|----|----|----|
 --5----5----4--2--|--4----4----2--4--|--5-8-----5-8-------------|----|----|----|
 --5----5----4--2--|--4----4----2--4--|--------------------------|----|----|----|
 --5----5----4--2--|--4----4----2--4--|--------------------------|----|----|----|
 ----|----|----|----|----|----|----|----|----|----|----|----|----|
 ----|----|----|----|----|----|----|----|----|----|----|----|----|
 ----|----|----|----|----|----|----|----|----|----|----|----|----|
 ----|----|----|----|----|----|----|----|----|----|----|----|----|
 ----|----|----|----|----|----|----|----|----|----|----|----|----|
 ----|----|----|----|----|----|----|----|----|----|----|----|----|

E E E E E E H Q E E E E E E
 
 --19--15------------------|-----------------|--------------------------|
 ----------17--------------|-----------------|------------------13--14--|
 --------------16----------|-----------------|--14--13--14--16----------|
 ------------------17--16--|-----------------|--------------------------|
 --------------------------|--19--------L----|--------------------------|
 --------------------------|-----------------|--------------------------|

H Q E E E E E E H Q
 
 --12--------L----|--17--12------------------|-----------------|
 -----------------|----------14--------------|-----------------|
 -----------------|--------------14----------|-----------------|
 -----------------|------------------14--12--|-----------------|
 -----------------|--------------------------|--16--------L----|
 -----------------|--------------------------|-----------------|

[E] [E] [E] [E] [E] [E] [E] [E] [E] [E] [E] [E] [E] [E]  
 
 --------------------------|-----|--------------------------|
 --------------------------|-----|--------------------------|
 --18--16--15------15--16--|-----|--4--4--4--4--4--4--4--4--|
 --------------16----------|-----|--4--4--4--4--4--4--4--4--|
 --------------------------|-----|--2--2--2--2--2--2--2--2--|
 --------------------------|-----|--------------------------|

[E] [E] [E] [E] [E] [E] [E] [E] [E] [E] [E] [E] [E] [E] [E] [E]  
 
 --------------------------|--------------------------|
 --------------------------|--------------------------|
 --------------------------|--------------------------|
 --5--5--5--5--5--5--5--5--|--0--0--0--0--0--0--0--0--|
 --5--5--5--5--5--5--5--5--|--0--0--0--0--0--0--0--0--|
 --5--5--5--5--5--5--5--5--|--0--0--0--0--0--0--0--0--|

[E] [E] [E] [E] [E] [E] [E] [E] [E] [E] [E] [E] [E] [E] [E] [E]  
 
 --------------------------|--------------------------|
 --------------------------|--------------------------|
 --2--2--2--2--2--2--2--2--|--4--4--4--4--4--4--4--4--|
 --2--2--2--2--2--2--2--2--|--4--4--4--4--4--4--4--4--|
 --0--0--0--0--0--0--0--0--|--2--2--2--2--2--2--2--2--|
 --------------------------|--------------------------|

[E] [E] [E] [E] [E] [E] [E] [E] [E] [E] [E] [E] [E] [E] [E] [E]  
 
 --------------------------|--------------------------|
 --------------------------|--------------------------|
 --------------------------|--------------------------|
 --5--5--5--5--5--5--5--5--|--2--2--2--2--2--2--2--2--|
 --5--5--5--5--5--5--5--5--|--2--2--2--2--2--2--2--2--|
 --5--5--5--5--5--5--5--5--|--2--2--2--2--2--2--2--2--|

[E] [E] [E] [E] [E] [E] [E] [E] [E] [E] [E] [E] [E] [E] [E] [E]  
 
 --------------------------|--------------------------|
 --------------------------|--------------------------|
 --2--2--2--2--2--2--2--2--|--4--4--4--4--4--4--4--4--|
 --2--2--2--2--2--2--2--2--|--4--4--4--4--4--4--4--4--|
 --0--0--0--0--0--0--0--0--|--2--2--2--2--2--2--2--2--|
 --------------------------|--------------------------|

[E] [E] [E] [E] [E] [E] [E] [E] [E] [E] [E] [E] [E] [E] [E] [E]  
 
 --------------------------|--------------------------|
 --------------------------|--------------------------|
 --------------------------|--------------------------|
 --5--5--5--5--5--5--5--5--|--0--0--0--0--0--0--0--0--|
 --5--5--5--5--5--5--5--5--|--0--0--0--0--0--0--0--0--|
 --5--5--5--5--5--5--5--5--|--0--0--0--0--0--0--0--0--|

[E] [E] [E] [E] [E] [E] [E] [E] [E] [E] [E] [E] [E] [E] [E] [E]  
 
 --------------------------|--------------------------|
 --------------------------|--------------------------|
 --2--2--2--2--6--6--6--6--|--4--4--4--4--4--4--4--4--|
 --2--2--2--2--6--6--6--6--|--4--4--4--4--4--4--4--4--|
 --0--0--0--0--4--4--4--4--|--2--2--2--2--2--2--2--2--|
 --------------------------|--------------------------|

E E E E E E E E E E E E E E E E H Q
 
 --------------------------|--------------------------|-----------------|
 --------------------------|--------------------------|-----------------|
 --------------------------|--------------------------|-----------------|
 --5--5--5--5--5--5--5--5--|--0--0--0--0--0--0--0--0--|--4--------L\----|
 --5--5--5--5--5--5--5--5--|--0--0--0--0--0--0--0--0--|--4--------L\----|
 --5--5--5--5--5--5--5--5--|--0--0--0--0--0--0--0--0--|--4--------L\----|

PM PM PM PM
Q Q E E Q Q Q Q Q E E
 
 ------------------|-----------------|------------------|
 ------------------|-----------------|------------------|
 ------------------|-----------------|------------------|
 --4----4----2--4--|--5----5----2----|--4----4----2--4--|
 --4----4----2--4--|--5----5----2----|--4----4----2--4--|
 --4----4----2--4--|--5----5----2----|--4----4----2--4--|

PM PM PM PM PM PM PM PM PM PM PM PM PM PM PM PM
S S S S S S S S S S S S Q Q E E Q Q E E
 
 --------------------------------------|------------------|------------------|
 --------------------------------------|------------------|------------------|
 --------------------------------------|------------------|------------------|
 --------------------------------------|--4----4----2--4--|--5----5----2--4--|
 --------2-----------------------------|--4----4----2--4--|--5----5----2--4--|
 --2--4-----4--2--0--2--4--5--4--2--0--|--4----4----2--4--|--5----5----2--4--|

PM PM PM PM
Q Q E E S S S S S S S S S S S S Q Q E E
 
 ------------------|----------------------6-9-|------------------|
 ------------------|------------------5-8-----|------------------|
 ------------------|------6-9-----6-9---------|------------------|
 --4----4----2--4--|--5-8-----5-8-------------|--4----4----2--4--|
 --4----4----2--4--|--------------------------|--4----4----2--4--|
 --4----4----2--4--|--------------------------|--4----4----2--4--|

PM PM PM PM PM PM PM PM PM PM PM PM PM PM
Q Q Q Q Q E E S S S S S S S S S S S S
 
 -----------------|------------------|--------------------------------------|
 -----------------|------------------|--------------------------------------|
 -----------------|------------------|--------------------------------------|
 --5----5----2----|--4----4----2--4--|--------------------------------------|
 --5----5----2----|--4----4----2--4--|--------2-----------------------------|
 --5----5----2----|--4----4----2--4--|--2--4-----4--2--0--2--4--5--4--2--0--|

PM PM PM PM PM PM
Q Q E E Q Q E E Q Q E E
 
 ------------------|------------------|------------------|
 ------------------|------------------|------------------|
 ------------------|------------------|------------------|
 --4----4----2--4--|--5----5----2--4--|--4----4----2--4--|
 --4----4----2--4--|--5----5----2--4--|--4----4----2--4--|
 --4----4----2--4--|--5----5----2--4--|--4----4----2--4--|

PM PM PM PM PM PM PM PM PM PM PM PM
S S S S S S S S S S S S Q H
 
 --------------------------------------|-----------------|-----------||
 --------------------------------------|-----------------|-----------||
 --------------------------------------|-----------------|-----------||
 --------------------------------------|--4----L\--------|-----------||
 --------2-----------------------------|--4----L\--------|-----------||
 --2--4-----4--2--0--2--4--5--4--2--0--|--4----L\--------|-----------||

Guitar 2
Starts at (00:42)
H Q H Q H Q
 
 -------|-------|-------|-----------------|----------------|-----------------|
 -------|-------|-------|-----------------|----------------|-----------------|
 -------|-------|-------|-----------------|----------------|-----------------|
 -------|-------|-------|--12--------L----|--L--------L----|--11--------L----|
 -------|-------|-------|-----------------|----------------|-----------------|
 -------|-------|-------|-----------------|----------------|-----------------|

H Q H Q H Q H Q
 
 ----------------|----------------|----------------|----------------|
 ----------------|----------------|----------------|----------------|
 ----------------|----------------|----------------|----------------|
 --L--------L----|--9--------L----|--L--------L----|--L--------L----|
 ----------------|----------------|----------------|----------------|
 ----------------|----------------|----------------|----------------|

H Q H Q H Q H Q
 
 -----------------|----------------|----------------|----------------|
 -----------------|----------------|----------------|----------------|
 -----------------|----------------|----------------|----------------|
 --11--------L----|--9--------L----|--L--------L----|--L--------L----|
 -----------------|----------------|----------------|----------------|
 -----------------|----------------|----------------|----------------|

H Q H Q H Q H Q
 
 ----------------|-----------------|----------------|----------------|
 ----------------|-----------------|----------------|----------------|
 ----------------|-----------------|----------------|----------------|
 --L--------L----|--11--------L----|--L--------L----|--L--------L----|
 ----------------|-----------------|----------------|----------------|
 ----------------|-----------------|----------------|----------------|

H Q E E E E E E E E E E E E E E E E
 
 ----------------|--------------------------|--------------------------|
 ----------------|--7--7--7--7--7--7--7--7--|--8--8--8--8--8--8--8--8--|
 ----------------|--x--x--x--x--x--x--x--x--|--x--x--x--x--x--x--x--x--|
 --L--------L----|--4--4--4--4--4--4--4--4--|--5--5--5--5--5--5--5--5--|
 ----------------|--------------------------|--------------------------|
 ----------------|--------------------------|--------------------------|

[E] [E] [E] [E] [E] [E] [E] [E] [E] [E] [E] [E] [E] [E] [E] [E]  
 
 --------------------------|--------------------------|
 --7--7--7--7--7--7--7--7--|--------------------------|
 --x--x--x--x--x--x--x--x--|--9--9--9--9--9--9--9--9--|
 --4--4--4--4--4--4--4--4--|--x--x--x--x--x--x--x--x--|
 --------------------------|--7--7--7--7--7--7--7--7--|
 --------------------------|--------------------------|

[E] [E] [E] [E] [E] [E] [E] [E] [E] [E] [E] [E] [E] [E] [E] [E]  
 
 --------------------------|--------------------------|
 --7--7--7--7--7--7--7--7--|--8--8--8--8--8--8--8--8--|
 --x--x--x--x--x--x--x--x--|--x--x--x--x--x--x--x--x--|
 --4--4--4--4--4--4--4--4--|--5--5--5--5--5--5--5--5--|
 --------------------------|--------------------------|
 --------------------------|--------------------------|

[E] [E] [E] [E] [E] [E] [E] [E] [E] [E] [E] [E] [E] [E] [E] [E]  
 
 --------------------------|----------------------------------|
 --------------------------|--10--10--10--10--10--10--10--10--|
 --9--9--9--9--9--9--9--9--|---x---x---x---x---x---x---x---x--|
 --x--x--x--x--x--x--x--x--|---7---7---7---7---7---7---7---7--|
 --7--7--7--7--7--7--7--7--|----------------------------------|
 --------------------------|----------------------------------|

[E] [E] [E] [E] [E] [E] [E] [E] [E] [E] [E] [E] [E] [E] [E] [E]  
 
 ----------------------------------|---------------------------------|
 --15--15--15--15--15--14--14--12--|--12--12--12--12--12--10--10--8--|
 ---x---x---x---x---x---x---x---x--|---x---x---x---x---x---x---x--x--|
 --12--12--12--12--12--11--11---9--|---9---9---9---9---9---7---7--5--|
 ----------------------------------|---------------------------------|
 ----------------------------------|---------------------------------|

[E] [E] [E] [E] [E] [E] [E] [E] [E] [E] [E] [E] [E] [E] [E] [E]  
 
 --------------------------|-----------------------------|
 --7--7--7--7--7--8--8--7--|--10--10--10-----------------|
 --x--x--x--x--x--x--x--x--|---x---x---x--7--6--6--6--6--|
 --4--4--4--4--4--5--5--4--|---7---7---7--x--x--x--x--x--|
 --------------------------|--------------5--4--4--4--4--|
 --------------------------|-----------------------------|

[E] [E] [E] [E] [E] [E] [E] [E] [E] [E] [E] [E] [E] [E] [E] [E]  
 
 --------------------------|--------------------------|
 --7--7--7--7--7--7--7--7--|--8--8--8--8--8--8--8--8--|
 --x--x--x--x--x--x--x--x--|--x--x--x--x--x--x--x--x--|
 --4--4--4--4--4--4--4--4--|--5--5--5--5--5--5--5--5--|
 --------------------------|--------------------------|
 --------------------------|--------------------------|

E E E E E E E E H Q
 
 --------------------------|----------------|-------|-------|-------|-------|
 --7--7--7--7--7--7--7--7--|----------------|-------|-------|-------|-------|
 --x--x--x--x--x--x--x--x--|--9--------L----|-------|-------|-------|-------|
 --4--4--4--4--4--4--4--4--|--x-------------|-------|-------|-------|-------|
 --------------------------|--7--------L----|-------|-------|-------|-------|
 --------------------------|----------------|-------|-------|-------|-------|
 -------|-------|-------|-------|-------|-------|-------|-------|-------|-------|
 -------|-------|-------|-------|-------|-------|-------|-------|-------|-------|
 -------|-------|-------|-------|-------|-------|-------|-------|-------|-------|
 -------|-------|-------|-------|-------|-------|-------|-------|-------|-------|
 -------|-------|-------|-------|-------|-------|-------|-------|-------|-------|
 -------|-------|-------|-------|-------|-------|-------|-------|-------|-------|
 -------|-------|-------|-------|-------|-------|-------|-------|-------|-------|
 -------|-------|-------|-------|-------|-------|-------|-------|-------|-------|
 -------|-------|-------|-------|-------|-------|-------|-------|-------|-------|
 -------|-------|-------|-------|-------|-------|-------|-------|-------|-------|
 -------|-------|-------|-------|-------|-------|-------|-------|-------|-------|
 -------|-------|-------|-------|-------|-------|-------|-------|-------|-------|
 -------|-------|-------|-------|-------|-------|-------|-------|-------|-------|
 -------|-------|-------|-------|-------|-------|-------|-------|-------|-------|
 -------|-------|-------|-------|-------|-------|-------|-------|-------|-------|
 -------|-------|-------|-------|-------|-------|-------|-------|-------|-------|
 -------|-------|-------|-------|-------|-------|-------|-------|-------|-------|
 -------|-------|-------|-------|-------|-------|-------|-------|-------|-------|

PM PM PM PM PM PM
[E] [E] [E] [E] [E] [E] [E] [E] [E] [E] [E] [E]  
 
 -------|-------|-------|-------|--------------------|--------------------|
 -------|-------|-------|-------|--------------------|--------------------|
 -------|-------|-------|-------|--3--3--3--3--3--3--|--3--3--3--3--3--3--|
 -------|-------|-------|-------|--3--3--3--3--3--3--|--3--3--3--3--3--3--|
 -------|-------|-------|-------|--1--1--1--1--1--1--|--1--1--1--1--1--1--|
 -------|-------|-------|-------|--------------------|--------------------|

[E] [E] [E] [E] [E] [E] [E] [E] [E] [E] [E] [E] [E] [E] [E] [E]  
 
 --------------------------|--------------------------|
 --7--7--7--7--7--7--7--7--|--8--8--8--8--8--8--8--8--|
 --x--x--x--x--x--x--x--x--|--x--x--x--x--x--x--x--x--|
 --4--4--4--4--4--4--4--4--|--5--5--5--5--5--5--5--5--|
 --------------------------|--------------------------|
 --------------------------|--------------------------|

[E] [E] [E] [E] [E] [E] [E] [E] [E] [E] [E] [E] [E] [E] [E] [E]  
 
 --------------------------|--------------------------|
 --7--7--7--7--7--7--7--7--|--------------------------|
 --x--x--x--x--x--x--x--x--|--9--9--9--9--9--9--9--9--|
 --4--4--4--4--4--4--4--4--|--x--x--x--x--x--x--x--x--|
 --------------------------|--7--7--7--7--7--7--7--7--|
 --------------------------|--------------------------|

[E] [E] [E] [E] [E] [E] [E] [E] [E] [E] [E] [E] [E] [E] [E] [E]  
 
 --------------------------|--------------------------|
 --7--7--7--7--7--7--7--7--|--8--8--8--8--8--8--8--8--|
 --x--x--x--x--x--x--x--x--|--x--x--x--x--x--x--x--x--|
 --4--4--4--4--4--4--4--4--|--5--5--5--5--5--5--5--5--|
 --------------------------|--------------------------|
 --------------------------|--------------------------|

[E] [E] [E] [E] [E] [E] [E] [E] [E] [E] [E] [E] [E] [E] [E] [E]  
 
 --------------------------|----------------------------------|
 --------------------------|--10--10--10--10--10--10--10--10--|
 --9--9--9--9--9--9--9--9--|---x---x---x---x---x---x---x---x--|
 --x--x--x--x--x--x--x--x--|---7---7---7---7---7---7---7---7--|
 --7--7--7--7--7--7--7--7--|----------------------------------|
 --------------------------|----------------------------------|

[E] [E] [E] [E] [E] [E] [E] [E] [E] [E] [E] [E] [E] [E] [E] [E]  
 
 ----------------------------------|---------------------------------|
 --15--15--15--15--15--14--14--12--|--12--12--12--12--12--10--10--8--|
 ---x---x---x---x---x---x---x---x--|---x---x---x---x---x---x---x--x--|
 --12--12--12--12--12--11--11---9--|---9---9---9---9---9---7---7--5--|
 ----------------------------------|---------------------------------|
 ----------------------------------|---------------------------------|

[E] [E] [E] [E] [E] [E] [E] [E] [E] [E] [E] [E] [E] [E] [E] [E]  
 
 --------------------------|-----------------------------|
 --7--7--7--7--7--8--8--7--|--10--10--10-----------------|
 --x--x--x--x--x--x--x--x--|---x---x---x--7--6--6--6--6--|
 --4--4--4--4--4--5--5--4--|---7---7---7--x--x--x--x--x--|
 --------------------------|--------------5--4--4--4--4--|
 --------------------------|-----------------------------|

[E] [E] [E] [E] [E] [E] [E] [E] [E] [E] [E] [E] [E] [E] [E] [E]  
 
 --------------------------|--------------------------|
 --7--7--7--7--7--7--7--7--|--8--8--8--8--8--8--8--8--|
 --x--x--x--x--x--x--x--x--|--x--x--x--x--x--x--x--x--|
 --4--4--4--4--4--4--4--4--|--5--5--5--5--5--5--5--5--|
 --------------------------|--------------------------|
 --------------------------|--------------------------|

PM PM
E E E E E E E E Q Q E E Q Q Q
 
 --------------------------|-----|------------------|-----------------|
 --7--7--7--7--7--7--7--7--|-----|------------------|-----------------|
 --x--x--x--x--x--x--x--x--|-----|------------------|-----------------|
 --4--4--4--4--4--4--4--4--|-----|--4----4----2--4--|--5----5----2----|
 --------------------------|-----|--4----4----2--4--|--5----5----2----|
 --------------------------|-----|--4----4----2--4--|--5----5----2----|

PM PM PM PM
Q Q E E S S S S S S S S S S S S Q Q E E
 
 ------------------|-------------------------------|------------------|
 ------------------|--------------------------8-11-|------------------|
 ------------------|----------------------6-9------|------------------|
 --4----4----2--4--|-------8-11------8-11----------|--4----4----2--4--|
 --4----4----2--4--|--7-10------7-10---------------|--4----4----2--4--|
 --4----4----2--4--|-------------------------------|--4----4----2--4--|

PM PM PM PM
Q Q E E Q Q E E S S S S S S S S S S S S
 
 ------------------|------------------|-------------------------------|
 ------------------|------------------|--------------------------8-11-|
 ------------------|------------------|----------------------6-9------|
 --5----5----4--2--|--4----4----2--4--|-------8-11------8-11----------|
 --5----5----4--2--|--4----4----2--4--|--7-10------7-10---------------|
 --5----5----4--2--|--4----4----2--4--|-------------------------------|

H Q E E E E E E H Q
 
 -----------------|----------------------10--|--14--------L----|
 --12--------L----|--12--------------12------|-----------------|
 -----------------|------11------11----------|-----------------|
 -----------------|----------12--------------|-----------------|
 -----------------|--------------------------|-----------------|
 -----------------|--------------------------|-----------------|

E E E E E E H Q H E E
 
 --17--15--14b--14--12--14--|--14b--------L----|--14--------12--14--|
 ---------------------------|------------------|--------------------|
 ---------------------------|------------------|--------------------|
 ---------------------------|------------------|--------------------|
 ---------------------------|------------------|--------------------|
 ---------------------------|------------------|--------------------|
 |---3---| |---3---|

E E E S S S S S S S S S S S S S S S S E E E
 
 --15--14--12--14-12----12-------------|--------------------------------------|
 --------------------15----15-14-15-14-|--12-14-12----12----------------------|
 --------------------------------------|-----------14----14-12-11-------------|
 --------------------------------------|--------------------------14--12--14--|
 --------------------------------------|--------------------------------------|
 --------------------------------------|--------------------------------------|

[B] [E] [E] [E] [E] [E] [E] [E] [E] [E] [E] [E] [E] [E] [E]  
 
 --------------------|----------------------10--|--9---------------------|
 --------------------|--12--------------12------|-----10------10---------|
 --11------------11--|------11------11----------|---------11------9--11--|
 ------------12------|----------12--------------|------------------------|
 --------------------|--------------------------|------------------------|
 --------------------|--------------------------|------------------------|
 |--3--| |--3--|

E E E E E E H E S S S H E S S S
 
 ------9--10--9--10--12--|--10--------L-----------|--14---------------------|
 --10--------------------|---------------14-15-17-|------------15--15-17-19-|
 ------------------------|------------------------|-------------------------|
 ------------------------|------------------------|-------------------------|
 ------------------------|------------------------|-------------------------|
 ------------------------|------------------------|-------------------------|

|--3--|
H E E S S S S S S S S S S S E H Q
 
 --15------------15--|--19-15-------------------------15-19--|--22--------L----|
 ------------17------|--------17-------------------17--------|-----------------|
 --------------------|-----------16-------------16-----------|-----------------|
 --------------------|--------------17-------17--------------|-----------------|
 --------------------|-----------------19-19-----------------|-----------------|
 --------------------|---------------------------------------|-----------------|

E E E E E E H Q E E E E E E
 
 --15--10------------------|-----------------|--------------------------|
 ----------12--------------|-----------------|----------------------13--|
 --------------12----------|-----------------|--14--13--14--15--16------|
 ------------------14--12--|--11--------L----|--------------------------|
 --------------------------|-----------------|--------------------------|
 --------------------------|-----------------|--------------------------|

PM PM
H Q Q E E E E H Q
 
 -----------------|------------------------|--14--------------|-------|
 --14--------L----|--------------------13--|------------14----|-------|
 -----------------|--14------------14------|------------------|-------|
 -----------------|--------11--------------|------------------|-------|
 -----------------|------------------------|------------------|-------|
 -----------------|------------14----------|------------------|-------|

[E] [E] [E] [E] [E] [E] [E] [E] [E] [E] [E] [E] [E] [E] [E] [E]  
 
 --------------------------|--------------------------|
 --7--7--7--7--7--7--7--7--|--8--8--8--8--8--8--8--8--|
 --x--x--x--x--x--x--x--x--|--x--x--x--x--x--x--x--x--|
 --4--4--4--4--4--4--4--4--|--5--5--5--5--5--5--5--5--|
 --------------------------|--------------------------|
 --------------------------|--------------------------|

[E] [E] [E] [E] [E] [E] [E] [E] [E] [E] [E] [E] [E] [E] [E] [E]  
 
 --------------------------|--------------------------|
 --7--7--7--7--7--7--7--7--|--------------------------|
 --x--x--x--x--x--x--x--x--|--9--9--9--9--9--9--9--9--|
 --4--4--4--4--4--4--4--4--|--x--x--x--x--x--x--x--x--|
 --------------------------|--7--7--7--7--7--7--7--7--|
 --------------------------|--------------------------|

[E] [E] [E] [E] [E] [E] [E] [E] [E] [E] [E] [E] [E] [E] [E] [E]  
 
 --------------------------|--------------------------|
 --7--7--7--7--7--7--7--7--|--8--8--8--8--8--8--8--8--|
 --x--x--x--x--x--x--x--x--|--x--x--x--x--x--x--x--x--|
 --4--4--4--4--4--4--4--4--|--5--5--5--5--5--5--5--5--|
 --------------------------|--------------------------|
 --------------------------|--------------------------|

[E] [E] [E] [E] [E] [E] [E] [E] [E] [E] [E] [E] [E] [E] [E] [E]  
 
 --------------------------|----------------------------------|
 --------------------------|--10--10--10--10--10--10--10--10--|
 --9--9--9--9--9--9--9--9--|---x---x---x---x---x---x---x---x--|
 --x--x--x--x--x--x--x--x--|---7---7---7---7---7---7---7---7--|
 --7--7--7--7--7--7--7--7--|----------------------------------|
 --------------------------|----------------------------------|

[E] [E] [E] [E] [E] [E] [E] [E] [E] [E] [E] [E] [E] [E] [E] [E]  
 
 ----------------------------------|---------------------------------|
 --15--15--15--15--15--14--14--12--|--12--12--12--12--12--10--10--8--|
 ---x---x---x---x---x---x---x---x--|---x---x---x---x---x---x---x--x--|
 --12--12--12--12--12--11--11---9--|---9---9---9---9---9---7---7--5--|
 ----------------------------------|---------------------------------|
 ----------------------------------|---------------------------------|

[E] [E] [E] [E] [E] [E] [E] [E] [E] [E] [E] [E] [E] [E] [E] [E]  
 
 --------------------------|-----------------------------|
 --7--7--7--7--7--8--8--7--|--10--10--10-----------------|
 --x--x--x--x--x--x--x--x--|---x---x---x--7--6--6--6--6--|
 --4--4--4--4--4--5--5--4--|---7---7---7--x--x--x--x--x--|
 --------------------------|--------------5--4--4--4--4--|
 --------------------------|-----------------------------|

[E] [E] [E] [E] [E] [E] [E] [E] [E] [E] [E] [E] [E] [E] [E] [E]  
 
 --------------------------|--------------------------|
 --7--7--7--7--7--7--7--7--|--8--8--8--8--8--8--8--8--|
 --x--x--x--x--x--x--x--x--|--x--x--x--x--x--x--x--x--|
 --4--4--4--4--4--4--4--4--|--5--5--5--5--5--5--5--5--|
 --------------------------|--------------------------|
 --------------------------|--------------------------|

PM PM
E E E E E E E E H Q Q Q E E
 
 --------------------------|-----------------|------------------|
 --7--7--7--7--7--7--7--7--|-----------------|------------------|
 --x--x--x--x--x--x--x--x--|--9--------L\----|------------------|
 --4--4--4--4--4--4--4--4--|--x--------------|--4----4----2--4--|
 --------------------------|--7--------L\----|--4----4----2--4--|
 --------------------------|-----------------|--4----4----2--4--|

PM PM PM PM PM PM PM PM PM PM PM PM PM PM
Q Q Q Q Q E E S S S S S S S S S S S S
 
 -----------------|------------------|--------------------------------------|
 -----------------|------------------|--------------------------------------|
 -----------------|------------------|-------------------------------

Important: The song above is NOT stored on the Chordie server. The original song is hosted at www.guitaretab.com. Chordie works as a search engine and provides on-the-fly formatting. Chordie does not index songs against artists'/composers' will. To remove this song please click here.

Text color:
Chord color:
Chord grids: 
Font size:    
Page size: 

B E
Rate #1 of 1 versions

Login - add to songbook

SHARE PAGE  



You need to log in to post comments