Guitar Tabs, Chords and Lyrics
Server problems seems to be fixed. Chordie has been experiencing problems with songs disappearing. These issues now seems to be fixed, but still verifying the fix. If you find anything strange, please email admin@chordie.com.


Lost It All  Black Veil Brides

..::~~~Black Veil Brides~~~::..
--::::~~~~~~Lost It All~~~~~~::::--
''::~~~~~~~~Satsana~~~~~~~~::''
** Tab has been corrected.
This is an amazing song but i like to transcribe the piano and violins to guitar
so that everyone who loves this song gets to
have fun playing the whole song as he hears it. Mistakes are possible, i have a
perforated eardrum so can't listen really well
please do correct my mistakes if you see anyone.
This song is in Drop C#, but this way it can be played in standard tuning.
Tuning: Standard
Capo: 1st fret
>>>Intro:
Am x2 C x2 G F F F E Am Am Am |
 
 E||----------|----------|----------------------------------------------------------|
 B||-1--------|--1-------|3--------1-------------1---------0----0-----1-----1-----1-|
 G||-2----2---|--0---2---|0---2----2---2----2----2----1---------0-----2-----2-----2-|
 D||----2---2-|----2---2-|--0---0----3---3--3--3---3--2--2---2--2--2--2--2--2--2--2-|
 A||-0--------|--3-------|----------------------------2-----------------------------|
 e||----------|----------|3--------1--------1---------------------------------------|
 ----0-0----0---0----0-1-3-5--8--7--5--4||
 -3------------------------3------------||
 -2--2-2-------------2-----2--5--4--2--1||
 -2--2-2--2---2---2--2------------------||
 ---------------------------------------||
 ---------------------------------------||

>>>Verse 1:
[Am] [G] [F] [Dm-E]  
[Am] I ruled the[G] world
with these [F]hands I shook
the [Dm--]heavens [E]to the [Am]ground.
I laid the [G]gods to[F] rest.[Dm--] [E]
[Am] I held the[G] key to th[F]e kingdom lions,
[Dm--]Guarding [E]castle [Am]walls.
Hail the [G]king of[F] death.
>>>Chorus 1:
[G] [Am] Then I lost it[F] all, dead and broken.
[G]My,[Am] back's against the[F] wall. Cut me open.
[G]I'm just trying to breathe, just trying[Am] to figure it out.
Because I [F]built these walls to watch them crumbling down.
I said,[G] [Am]then I lost it [F]all
Who can save me [Am]now?[G] [F] [Dm]
*******The rythm for Verse 2 goes like this:*******
Example with Am: (x means mute this)
x x x x
 
 E||----------------------------||
 B||----1--1--1~----1--1--1~----||
 G||----2--2--2~----2--2--2~----||
 D||----2--2--2~----2--2--2~----||
 A||----------------------------||
 e||----------------------------||

*****************************************************
>>>Verse 2:
[Am] [G] [F]  
 
 I stood above, another war. E|---------------|
 Dm-- E Am B|---------------|
 Another jewel upon the crown G|---1-----------|
 G F Dm- E-------->D|---2--2-0------|
 I was the fear of men. A|---2------3-0--|
 Am G F e|---------------|

But I was blind I couldn't see
The world there [Dm--]right in[E] front o[Am]f me.
But [G]now, I[F] can.
E~~
Yeah
>>>Chorus 2:
x3 |
 
 E||--15------------------------12----------------------|
 B||-----13-12-13----12-13-12------13-12-13----12-13-12-|
 G||--------------14------------------------14----------|
 D||----------------------------------------------------|
 A||----------------------------------------------------|
 e||----------------------------------------------------|

x2
 
 |--15----------------------15~-17~---15~--13~--12~--10~--8~--||
 |-----13-12-13----12-13-12-----------------------------------||
 |--------------14--------------------------------------------||
 |------------------------------------------------------------||
 |------------------------------------------------------------||
 |------------------------------------------------------------||

[G] [Am] Then I lost it[F] all, dead and broken.
[G]My,[Am] back's against the[F] wall. Cut me open.
[G]I'm just trying to breathe, just trying[Am] to figure it out.
Because I [F]built these walls to watch them crumbling down.
I said,[G] [Am]then I lost it [F]all
Who can save me [Am--]now?
[--C] [F] [F]  
Am C F F (3x)
x3
 
 E||---5-7-8~--5-7-8~--5-7-8-7-5-7-8-7-8s12-5~--|---5-7-8~--5-7-8~--5-7-8-7-5-7-8-7-8-12~----||
 B||-5------------------------------------------|-5------------------------------------------||
 G||--------------------------------------------|--------------------------------------------||
 D||--------------------------------------------|--------------------------------------------||
 A||--------------------------------------------|--------------------------------------------||
 e||--------------------------------------------|--------------------------------------------||

>>>Bridge:
C G Dm F E|-12~-13~-12~-8~-|
 
 I believe that we all fall down sometimes. B|----------------|
 C G Dm F G|----------------|
 Ohh Oh Ohh Oh |===================== D|----------------|

C G Dm >>Solo:
C G Dm F (4x)
 
 E||--s15~-15-15p13-13-13p12-12p10-12s10-8-10-8~-------------------------------------------|
 B||------------------------------------------------s13-13p12-12-12p10-10-10p8-8s5-5-8-5~--|
 G||---------------------------------------------------------------------------------------|
 D||---------------------------------------------------------------------------------------|
 A||---------------------------------------------------------------------------------------|
 e||---------------------------------------------------------------------------------------|
 E||------------------------------------------7-8-10-7-8-10-8|
 B||--5---5-6^8-6~--5-6-8-5-6-8-6-8-10-6-8-10----------------|
 G||----7----------------------------------------------------|
 D||---------------------------------------------------------|
 A||---------------------------------------------------------|
 e||---------------------------------------------------------|
 -10-12-8-10-12-10-12-13-10-12-13-13-12-10-8~|
 --------------------------------------------|
 --------------------------------------------|
 --------------------------------------------|
 --------------------------------------------|
 --------------------------------------------|
 E||--15~-----------15----15-----15-----15^17-15~-|
 B||-------13---------13----13-----13-------------|
 G||----------12~-------12----12-----12-----------|
 D||----------------------------------------------|
 A||----------------------------------------------|
 e||----------------------------------------------|
 -12-13-15-13-12----------------------------------------|
 ---------------15-13-12--------------------------------|
 -----------------------14-12-10-12-10-9----------------|
 ---------------------------------------15-14-12-10~----|
 -------------------------------------------------------|
 -------------------------------------------------------|
 E||---------------------------------------------------------12p10-8-10-8~||
 B||--------------------------------12s13~-10h12h13-10h12h13--------------||
 G||--12s10~--9h10-10^12-10-9-10-9~---------------------------------------||
 D||----------------------------------------------------------------------||
 A||----------------------------------------------------------------------||
 e||----------------------------------------------------------------------||

>>>Outro:
[C] I b[G]elieve that [Dm]we all [F]fall down sometimes.
[C] [G] Yeah![Dm] [F] [C]

Important: The song above is NOT stored on the Chordie server. The original song is hosted at www.guitaretab.com. Chordie works as a search engine and provides on-the-fly formatting. Chordie does not index songs against artists'/composers' will. To remove this song please click here.

Text color:
Chord color:
Chord grids: 
Font size:    
Page size: 

Am C Dm Dm-E E F G
Rate #1 of 6 versions

Jango Player

Login - add to songbook

SHARE PAGE  




You need to log in to post comments