Guitar Tabs, Chords and Lyrics
Major upgrade!! After one year development the new version of Chordie is now online! Please give feedback.


Wishing Well  Blackfoot

Title: Wishing Well
Artist: Blackfoot
Album: Strikes (1979)
Tabbed by: Rhythm Hippy
email: rpgoss@planters.net
Tuning: Standard (EADGBe)
Intro (Guitar 1)
 
 e|--------------------------------|
 B|--------------------------------|
 G|-9\--7--------------------------|
 D|-9\--7---9\--7------------------|
 A|-7\--5---9\--7-----7--5--3--0---|
 E|---------7\--5-----7--5--3--0---|
 e|-------------------------|
 B|-------------------------|
 G|-9\--7-------------------|
 D|-9\--7---9\--7---9-9-9---|
 A|-7\--5---9\--7---9-9-9---|
 E|---------7\--5---7-7-7---|

^
let it ring
Guitar 2
 
 e|----------------------------------------------------------|
 B|-14-14b--14-14b--12-14~~----------------------------------|
 G|----------------------------------------12--14--12-12-----|
 D|-------------------------------5~~------12--14--12-12-----|
 A|----------------------------------------10--12--10-10-----|
 E|----------------------------------------------------------|

^
G1 begin here
[G1]  
 
 e|--------------------------------------------------|
 B|--------------------------------------------------|
 G|--------------------------------------------------|
 D|-9-9-9---------5-5-5-5-5-5-5-5--7--9--11-11-11----|
 A|-9-9-9---------5-5-5-5-5-5-5-5--7--9--11-11-11----|
 E|-7-7-7---------3-3-3-3-3-3-3-3--5--7--9--9--9-----|

Take off your hat, kick off your shoes...
 
 e|-----------------------------------|
 B|-----------------------------------|
 G|-----------------------------------|
 D|-5-5-5-5-5-5-5-5--7--9--11-11-11---|
 A|-5-5-5-5-5-5-5-5--7--9--11-11-11---|
 E|-3-3-3-3-3-3-3-3--5--7--9--9--9----|

Run around the town, sing your blues...
 
 e|------------------------------------|
 B|------------------------------------|
 G|------------------------------------|
 D|-7--9--5-5-5-5----7--9--11-11-11----|
 A|-7--9--5-5-5-5----7--9--11-11-11----|
 E|-5--7--3-3-3-3----5--7--9--9--9-----|

You've always been a good friend of mine...
 
 e|--------------------------|
 B|--------------------------|
 G|--------------------------|
 D|-7--9--5-5-5-5----7--9----|
 A|-7--9--5-5-5-5----7--9----|
 E|-5--7--3-3-3-3----5--7----|

And only time that your satisfied...
 
 e|--------------------------------|
 B|--------------------------------|
 G|-9\--7--------------------------|
 D|-9\--7---9\--7------------------|
 A|-7\--5---9\--7-----7--5--3--0---|
 E|---------7\--5-----7--5--3--0---|

...in the wishing well
 
 e|-------------------------|
 B|-------------------------|
 G|-9\--7-------------------|
 D|-9\--7---9\--7---9-9-9---|
 A|-7\--5---9\--7---9-9-9---|
 E|---------7\--5---7-7-7---|

^
let it ring
[G2]  
 
 e|------------------------------------------|
 B|-14-14b--16h-18--13-14~~------------------|
 G|------------------------------------------|
 D|-------------------------------5~~--------|
 A|------------------------------------------|
 E|------------------------------------------|

^
pick slide
between A and D
The next riff is the same thing as above (you'll figure it
out), then he sings some soft stuff, then the solo.
Solo
 
 e|--------------------------------------------------|
 B|--------------------------------------------------|
 G|----------------------------------5h-7p-5---------|
 D|----------------7--5h-7p-5---5h-7---------7p-5----|
 A|--9b--7---9-10---------------------------------7--|
 E|--------------------------------------------------|
 e|----------------------------------------------------------------|
 B|--------------10b-----------------------------------------------|
 G|----9b--8/-9----------------------------------------------------|
 D|-5--------------------------------------------------------------|
 A|----------------------------------------------------------------|
 E|----------------------------------------------------------------|

Then he starts goin mad for about 10 seconds,
and i have no idea how that goes. after that
the solo is relatively easy, but im too lazy
too tab it.
Tablature Legend
 
 ----------------

\ - slide down
~ - vibrato
b - bend
h - hammer on
p - pull off

Important: The song above is NOT stored on the Chordie server. The original song is hosted at www.guitaretab.com. Chordie works as a search engine and provides on-the-fly formatting. Chordie does not index songs against artists'/composers' will. To remove this song please click here.

Text color:
Chord color:
Chord grids: 
Font size:    
Page size: 

G2
Rate #3 of 4 versions

Jango Player

Login - add to songbook

SHARE PAGE  




You need to log in to post comments