Guitar Tabs, Chords and Lyrics
Update 25:10. 13:00. Site is back up running again. Songbooks are recovered. Woring on getting search back up..


Railroad Man  Blackfoot

 
 -----------------------------------------------------------------------------

1. Railroad Man - Blackfoot
2. No Reservations - 1975
3. Words and Music by Shorty Medlocke
 
 -----------------------------------------------------------------------------

Tabbed by: Duane Baldwin
Email: duaneandjulie@gmail.com
Tuning: step down (Eb Ab Db Gb Bb eb)
Guitar I (Overdriven)
Intro
 
 Let Ring--------------
 e|--3--3---3---|--3--3---3---|--3--3---3---|------3-----3--------|
 B|--3--3---3---|--3--3---3---|--3--3---3---|---------3-----3-----|
 G|--0--0---0---|--0--0---0---|--0--0---0---|------------------0--|
 D|--0--0---2---|--0--0---2---|--0--0---2---|---------------------|
 A|--2--2---3---|--2--2---3---|--2--2---3---|---------------------|
 E|--3--3-------|--3--3-------|--3--3-------|--3------------------|
 --------------------------------------------------------------------
 e|------3-----3--------|------3-----3--------|------3-----3--------|
 B|---------3-----3-----|---------3-----3-----|---------3-----3-----|
 G|------------------0--|------------------0--|------------------0--|
 D|---------------------|---------------------|---------------------|
 A|---------------------|---------------------|---------------------|
 E|--3------------------|--3------------------|--3------------------|
 ---------------------------------------------------------|
 e|------3-----3--------|------3-----3--------|-------3------2-----|
 B|---------3-----3-----|---------3-----3-----|----------3---3-----|
 G|------------------0--|------------------0--|--------------2-----|
 D|---------------------|---------------------|--------------0-----|
 A|---------------------|---------------------|--------------------|
 E|--3------------------|--3------------------|--3-----------------|

Acoustic Guitar Solo
 
 e|-----------------------------------|-----------------------------------|
 B|-----------------------------------|-----------------------------------|
 G|-----x--x-----x--x-----x--x--------|-----x--x-----x--x-----x--x--------|
 D|--5--x--x-----x--x-----x--x--------|--5--x--x-----x--x-----x--x--------|
 A|--5--x--x--7--x--x--5--x--x--7--5--|--5--x--x--7--x--x--5--x--x--7--5--|
 E|--3--------3--------3--------5--3--|--3--------3--------3--------5--3--|
 e|-----------------------------------|-----------------------------------|
 B|-----------------------------------|-----------------------------------|
 G|-----x--x-----x--x-----x--x--------|-----x--x-----x--x-----x--x--------|
 D|--5--x--x-----x--x-----x--x--------|--5--x--x-----x--x-----x--x--------|
 A|--5--x--x--7--x--x--5--x--x--7--5--|--5--x--x--7--x--x--5--x--x--7--5--|
 E|--3--------3--------3--------5--3--|--3--------3--------3--------5--3--|
 e|-----------------------------------|-----------------------------------|
 B|-----------------------------------|-----------------------------------|
 G|-----x--x-----x--x-----x--x--------|-----x--x-----x--x-----x--x--------|
 D|--5--x--x-----x--x-----x--x--------|--5--x--x-----x--x-----x--x--------|
 A|--5--x--x--7--x--x--5--x--x--7--5--|--5--x--x--7--x--x--5--x--x--7--5--|
 E|--3--------3--------3--------5--3--|--3--------3--------3--------5--3--|

1st and 2nd Verse and Chorus
 
 e|---------3---------------3--------|---------3---------------3--------|
 B|------------3---------------3-----|------------3---------------3-----|
 G|------0--------0------0--------0--|------0--------0------0--------0--|
 D|----------------------------------|----------------------------------|
 A|----------------------------------|----------------------------------|
 E|--3---------------3---------------|--3---------------3---------------|
 e|---------3---------------3--------|---------3---------------3--------|
 B|------------3---------------3-----|------------3---------------3-----|
 G|------0--------0------0--------0--|------0--------0------0--------0--|
 D|----------------------------------|----------------------------------|
 A|----------------------------------|----------------------------------|
 E|--3---------------3---------------|--3---------------3---------------|
 e|---------3---------------3--------|----------------------------------|
 B|------------3---------------3-----|----------------------------------|
 G|------0--------0------0--------0--|----------------------------------|
 D|----------------------------------|------------------5--5------------|
 A|--3----------------3--------------|--5--5---------5--------7p5-------|
 E|----------------------------------|--3--3---6--7----------------7p5--|
 e|---------3---------------2--------|---------3---------------3--------|
 B|------------3---------------3-----|------------3---------------3-----|
 G|------0--------0------2--------2--|------0--------0------0--------0--|
 D|-------------------0--------------|----------------------------------|
 A|----------------------------------|----------------------------------|
 E|--3-------------------------------|--3---------------3---------------|

Solo after 2nd verse and chorus
 
 e|------------------------|
 B|------------------------|
 G|--5--5--5--5--5--5--5---|
 D|--5--5--5--5--5--5--5---|
 A|--3--3--3--3--3--3--3---|
 E|------------------------|
 e|-----------------------------------|-----------------------------------|
 B|-----------------------------------|-----------------------------------|
 G|-----x--x-----x--x-----x--x--------|-----x--x-----x--x-----x--x--------|
 D|--5--x--x-----x--x-----x--x--------|--5--x--x-----x--x-----x--x--------|
 A|--5--x--x--7--x--x--5--x--x--7--5--|--5--x--x--7--x--x--5--x--x--7--5--|
 E|--3--------3--------3--------5--3--|--3--------3--------3--------5--3--|
 e|-----------------------------------|-----------------------------------|
 B|-----------------------------------|-----------------------------------|
 G|-----------------------------------|-----x--x-----x--x-----x--x--------|
 D|--5--x--x-----------7--7--x--9--7--|--5--x--x-----x--x-----x--x--------|
 A|--5--x--x--7--x--x--5--5--x--5--5--|--5--x--x--7--x--x--5--x--x--7--5--|
 E|--3--x--x--3--x--x-----------------|--3--------3--------3--------5--3--|
 e|-----------------------------------|----------------------------------|
 B|-----------------------------------|----------------------------------|
 G|-----------------------------------|----------------------------------|
 D|--3--x--x--7--x--x--5--x--x--7--5--|------------------5--5------------|
 A|--5--x--x--3--x--x--3--x--x--3--3--|--5---5--------5--------7p5-------|
 E|-----------------------------------|--3---3--6--7----------------7p5--|
 e|-----------------------------------|-----------------------------------|
 B|-----------------------------------|-----------------------------------|
 G|-----x--x--------------------------|-----x--x-----x--x-----x--x--------|
 D|--5--x--x-----------7--7--x--9--7--|--5--x--x-----x--x-----x--x--------|
 A|--5--x--x--7--x--x--5--5--x--5--5--|--5--x--x--7--x--x--5--x--x--7--5--|
 E|--3--------3--x--x-----------------|--3--------3--------3--------5--3--|

3rd Verse and Chorus
 
 e|---------3---------------3--------|---------3---------------3--------|
 B|------------3---------------3-----|------------3---------------3-----|
 G|------0--------0------0--------0--|------0--------0------0--------0--|
 D|----------------------------------|----------------------------------|
 A|----------------------------------|----------------------------------|
 E|--3---------------3---------------|--3---------------3---------------|
 e|---------3---------------3--------|---------3-----------------2--------|
 B|------------3---------------3-----|------------3-----------------3-----|
 G|------0--------0------0--------0--|------0--------0--------2--------2--|
 D|----------------------------------|-------------------0----------------|
 A|----------------------------------|------------------------------------|
 E|--3---------------3---------------|--3---------------------------------|
 e|---------3---------------3--------|---------3---------------3--------|
 B|------------3---------------3-----|------------3---------------3-----|
 G|------0--------0------0--------0--|------0--------0------0--------0--|
 D|----------------------------------|----------------------------------|
 A|----------------------------------|----------------------------------|
 E|--3---------------3---------------|--3---------------3---------------|
 e|----------------------------------|---------3-----------------2--------|
 B|----------------------------------|------------3-----------------3-----|
 G|----------------------------------|------0--------0--------2--------2--|
 D|------------------5--5------------|-------------------0----------------|
 A|--5--5---------5--------7p5-------|------------------------------------|
 E|--3--3---6--7----------------7p5--|--3---------------------------------|

2nd Solo
 
 e|--------------------------------------|---------------------------------|
 B|--------------------------------------|------------15-------------------|
 G|-------------------12--14p12------12--|--14b--14b------14pbr--12--------|
 D|--5--5--5---11/14-------------12------|---------------------------14----|
 A|--3--3--3-----------------------------|---------------------------------|
 E|--------------------------------------|---------------------------------|

P.M.
 
 e|--------------------------------------------------------------------------|
 B|--------------15b--15p12--15p12--11--12--11-------------------------------|
 G|--12--14--12---------------------------------14--12------14------12--14b--|
 D|-----------------------------------------------------14------14-----------|
 A|--------------------------------------------------------------------------|
 E|--------------------------------------------------------------------------|
 -------------------------|
 e|-------------------------------|---------15---------15---------15---------|
 B|-------------------------------|--15h17------15h17------15h17------15h17--|
 G|--14pb--14pb--14pb--14pbr--12--|------------------------------------------|
 D|-------------------------------|------------------------------------------|
 A|-------------------------------|------------------------------------------|
 E|-------------------------------|------------------------------------------|
 e|--15---------15--18b--18pbr--15------15--15--|-------------------------|
 B|------15h17----------------------17----------|-------------------------|
 G|---------------------------------------------|-------------------------|
 D|---------------------------------------------|-------------------------|
 A|---------------------------------------------|----------10--12--12/14--|
 E|---------------------------------------------|--10--12-----------------|
 e|---------------------------------------------------|------15--------------|
 B|---------------------------------------------------|----------15----------|
 G|----------------------12--14--14br--12--14--12--14-|-14b---------14pbr--12|
 D|--12--14------12--14-------------------------------|----------------------|
 A|----------14---------------------------------------|----------------------|
 E|---------------------------------------------------|----------------------|

4th Verse and Chorus
 
 e|---------3---------------3--------|---------3---------------3--------|
 B|------------3---------------3-----|------------3---------------3-----|
 G|------0--------0------0--------0--|------0--------0------0--------0--|
 D|----------------------------------|----------------------------------|
 A|----------------------------------|----------------------------------|
 E|--3---------------3---------------|--3---------------3---------------|
 e|---------3----------------2--------|---------3-----------------3--------|
 B|------------3----------------3-----|------------3-----------------3-----|
 G|------0--------0-------2--------2--|------0--------0--------0--------0--|
 D|-------------------0---------------|------------------------------------|
 A|-----------------------------------|------------------------------------|
 E|--3--------------------------------|--3----------------3----------------|
 e|---------3---------------3--------|----------------------------------|
 B|------------3---------------3-----|----------------------------------|
 G|------0--------0------0--------0--|----------------------------------|
 D|----------------------------------|------------------5--5------------|
 A|----------------------------------|--5--5---------5--------7p5-------|
 E|--3---------------3---------------|--3--3---6--7----------------7p5--|
 e|---------3-----------------2--------|
 B|------------3-----------------3-----|
 G|------0--------0--------2--------2--|
 D|-------------------0----------------|
 A|------------------------------------|
 E|--3---------------------------------|

Outro
 
 Let Ring--------|
 e|--3--3---3---|--3--3---3---|--3--3---3---|--5----3-----3--------|
 B|--3--3---3---|--3--3---3---|--3--3---3---|--3-------3-----3-----|
 G|--0--0---0---|--0--0---0---|--0--0---0---|--0----------------0--|
 D|--0--0---2---|--0--0---2---|--0--0---2---|--0-------------------|
 A|--2--2---3---|--2--2---3---|--2--2---3---|----------------------|
 E|--3--3-------|--3--3-------|--3--3-------|----------------------|
 e|--3---3-----3--|--3--6--5--3-----3-----------------------------|
 B|--3------3-----|--------------5-----3--6--5--3-----3-----------|
 G|--0------------|--------------------------------5-----3--4-----|
 D|--2------------|--------------------------------------------5--|
 A|--3------------|-----------------------------------------------|
 E|---------------|-----------------------------------------------|

Guitar II (Overdriven)
Intro
 
 e|--3---3---3---3---3---3---3---3--3--|--3---3---3---3---3---3---3---3--3--|
 B|--3---3---3---3---3---3---3---3--3--|--3---3---3---3---3---3---3---3--3--|
 G|--0---0---0---0---0---0---0---0--0--|--0---0---0---0---0---0---0---0--0--|
 D|--0---0---0---2---2---2---2---2--2--|--0---0---0---2---2---2---2---2--2--|
 A|--2---2-------3---3---3---3---3--3--|--2---2-------3---3---3---3---3--3--|
 E|--3---3-----------------------------|--3---3-----------------------------|
 e|--3---3---3---3---3---3---3---3--3--|---3---|-------------|-------------|
 B|--3---3---3---3---3---3---3---3--3--|---3---|-------------|-------------|
 G|--0---0---0---0---0---0---0---0--0--|---0---|-------------|-------------|
 D|--0---0---0---2---2---2---2---2--2--|---0---|-------------|-------------|
 A|--2---2-------3---3---3---3---3--3--|---2---|-------------|-------------|
 E|--3---3-----------------------------|---3---|-------------|-------------|

Acoustic Guitar Solo
 
 e|--2---------------|
 B|--3---------------|
 G|--2---------------|
 D|--0----5----5-----|
 A|-------5----5-----|
 E|-------3----3-----|
 e|-----------------------------------|-----------------------------------|
 B|-----------------------------------|-----------------------------------|
 G|-----x--x-----x--x-----x--x--------|-----x--x-----x--x-----x--x--------|
 D|--5--x--x-----x--x-----x--x--------|--5--x--x-----x--x-----x--x--------|
 A|--5--x--x--7--x--x--5--x--x--7--5--|--5--x--x--7--x--x--5--x--x--7--5--|
 E|--3--------3--------3--------5--3--|--3--------3--------3--------5--3--|
 e|-----------------------------------|-----------------------------------|
 B|-----------------------------------|-----------------------------------|
 G|-----x--x-----x--x-----x--x--------|-----x--x-----x--x-----x--x--------|
 D|--5--x--x-----x--x-----x--x--------|--5--x--x-----x--x-----x--x--------|
 A|--5--x--x--7--x--x--5--x--x--7--5--|--5--x--x--7--x--x--5--x--x--7--5--|
 E|--3--------3--------3--------5--3--|--3--------3--------3--------5--3--|

1st and 2nd Verses and Chorus
 
 e|-----------------------------------|-----------------------------------|
 B|-----------------------------------|-----------------------------------|
 G|-----x--x-----x--x-----x--x--------|-----x--x-----x--x-----x--x--------|
 D|--5--x--x-----x--x-----x--x--------|--5--x--x-----x--x-----x--x--------|
 A|--5--x--x--7--x--x--5--x--x--7--5--|--5--x--x--7--x--x--5--x--x--7--5--|
 E|--3--------3--------3--------5--3--|--3--------3--------3--------5--3--|
 e|-----------------------------------|-----------------------------------|
 B|-----------------------------------|-----------------------------------|
 G|-----------------------------------|-----x--x-----x--x-----x--x--------|
 D|--5--x--x-----------7--7--x--9--7--|--5--x--x-----x--x-----x--x--------|
 A|--5--x--x--7--x--x--5--5--x--5--5--|--5--x--x--7--x--x--5--x--x--7--5--|
 E|--3--x--x--3--x--x-----------------|--3--------3--------3--------5--3--|
 e|-----------------------------------|----------------------------------|
 B|-----------------------------------|----------------------------------|
 G|-----------------------------------|----------------------------------|
 D|--3--x--x--7--x--x--5--x--x--7--5--|------------------5--5------------|
 A|--5--x--x--3--x--x--3--x--x--3--3--|--5---5--------5--------7p5-------|
 E|-----------------------------------|--3---3--6--7----------------7p5--|
 e|-----------------------------------|-----------------------------------|
 B|-----------------------------------|-----------------------------------|
 G|-----x--x--------------------------|-----x--x-----x--x-----x--x--------|
 D|--5--x--x-----------7--7--x--9--7--|--5--x--x-----x--x-----x--x--------|
 A|--5--x--x--7--x--x--5--5--x--5--5--|--5--x--x--7--x--x--5--x--x--7--5--|
 E|--3--------3--x--x-----------------|--3--------3--------3--------5--3--|

Solo after 2nd Verse and Chorus
 
 e|-------------------|
 B|-------------------|
 G|--5--5--5--5--5----|
 D|--5--5--5--5--5----|
 A|--3--3--3--3--3----|
 E|-------------------|
 e|----------------12--15----------------------|--------------------------|
 B|--15br--12--15----------15b--12--15--15p12--|------12------------------|
 G|--------------------------------------------|--15------15--14--12------|
 D|--------------------------------------------|----------------------14--|
 A|--------------------------------------------|--------------------------|
 E|--------------------------------------------|--------------------------|
 e|------------------------------|-------------------------------------------|
 B|------------------------------|---------------8p5-----10p8-----12p10------|
 G|--12--14--12------12----------|--------7--9--------7--------9---------12--|
 D|--------------14------14--12--|--7--9-------------------------------------|
 A|------------------------------|-------------------------------------------|
 E|------------------------------|-------------------------------------------|
 e|----------------------------------------15---------------12~~~~~---|
 B|--15p12------17p15------15--15--17--15------15b--12--15------------|
 G|---------15---------16---------------------------------------------|
 D|-------------------------------------------------------------------|
 A|-------------------------------------------------------------------|
 E|-------------------------------------------------------------------|
 e|------12--12--12------------------------|---------------------------------|
 B|--15--------------15pbr--12--15p12------|--11--12--11------11-------------|
 G|------------------------------------14--|--------------14------14--12-----|
 D|----------------------------------------|------------------------------14-|
 A|----------------------------------------|---------------------------------|
 E|----------------------------------------|---------------------------------|
 e|-----------------15br--|--12h15p12------12----------------12------------|
 B|-----------------------|------------15------15p12--13p12----------------|
 G|--12--14--12~~~--------|--------------------------------------14br--12--|
 D|-----------------------|------------------------------------------------|
 A|-----------------------|------------------------------------------------|
 E|-----------------------|------------------------------------------------|
 e|---------------------------------------15----|
 B|---------------------------------------------|
 G|--12h14p12--------------12--14--12/16--------|
 D|------------14--12--14-----------------------|
 A|---------------------------------------------|
 E|---------------------------------------------|

3rd Verse and Chorus
 
 e|-----------------------------------|-----------------------------------|
 B|-----------------------------------|-----------------------------------|
 G|-----x--x-----x--x-----x--x--------|-----x--x-----x--x-----x--x--------|
 D|--5--x--x-----x--x-----x--x--------|--5--x--x-----x--x-----x--x--------|
 A|--5--x--x--7--x--x--5--x--x--7--5--|--5--x--x--7--x--x--5--x--x--7--5--|
 E|--3--------3--------3--------5--3--|--3--------3--------3--------5--3--|
 e|-----------------------------------|-----------------------------------|
 B|-----------------------------------|-----------------------------------|
 G|-----------------------------------|-----x--x-----x--x-----x--x--------|
 D|--5--x--x-----------7--7--x--9--7--|--5--x--x-----x--x-----x--x--------|
 A|--5--x--x--7--x--x--5--5--x--5--5--|--5--x--x--7--x--x--5--x--x--7--5--|
 E|--3--x--x--3--x--x-----------------|--3--------3--------3--------5--3--|
 e|-----------------------------------|----------------------------------|
 B|-----------------------------------|----------------------------------|
 G|-----------------------------------|----------------------------------|
 D|--3--x--x--7--x--x--5--x--x--7--5--|------------------5--5------------|
 A|--5--x--x--3--x--x--3--x--x--3--3--|--5---5--------5--------7p5-------|
 E|-----------------------------------|--3---3--6--7----------------7p5--|
 e|-----------------------------------|------------------------|
 B|-----------------------------------|------------------------|
 G|-----x--x--------------------------|------------------------|
 D|--5--x--x-----------7--7--x--9--7--|--5--5--5--5--5--5--5---|
 A|--5--x--x--7--x--x--5--5--x--5--5--|--3--3--3--3--3--3--3---|
 E|--3--------3--x--x-----------------|------------------------|

2nd Solo
 
 e|-----------------------------------|-----------------------------------|
 B|-----------------------------------|-----------------------------------|
 G|-----x--x-----x--x-----x--x--------|-----x--x-----x--x-----x--x--------|
 D|--5--x--x-----x--x-----x--x--------|--5--x--x-----x--x-----x--x--------|
 A|--5--x--x--7--x--x--5--x--x--7--5--|--5--x--x--7--x--x--5--x--x--7--5--|
 E|--3--------3--------3--------5--3--|--3--------3--------3--------5--3--|
 e|-----------------------------------|-----------------------------------|
 B|-----------------------------------|-----------------------------------|
 G|-----------------------------------|-----x--x-----x--x-----x--x--------|
 D|--5--x--x-----------7--7--x--9--7--|--5--x--x-----x--x-----x--x--------|
 A|--5--x--x--7--x--x--5--5--x--5--5--|--5--x--x--7--x--x--5--x--x--7--5--|
 E|--3--x--x--3--x--x-----------------|--3--------3--------3--------5--3--|
 e|-----------------------------------|----------------------------------|
 B|-----------------------------------|----------------------------------|
 G|-----------------------------------|----------------------------------|
 D|--3--x--x--7--x--x--5--x--x--7--5--|------------------5--5------------|
 A|--5--x--x--3--x--x--3--x--x--3--3--|--5---5--------5--------7p5-------|
 E|-----------------------------------|--3---3--6--7----------------7p5--|
 e|-----------------------------------|-----------------------------------|
 B|-----------------------------------|-----------------------------------|
 G|-----------------------------------|-----x--x-----x--x-----x--x--------|
 D|--5--x--x-----------7--7--x--9--7--|--5--x--x-----x--x-----x--x--------|
 A|--5--x--x--7--x--x--5--5--x--5--5--|--5--x--x--7--x--x--5--x--x--7--5--|
 E|--3--x--x--3--x--x-----------------|--3--------3--------3--------5--3--|

4th Verse
 
 e|-----------------------------------|-----------------------------------|
 B|-----------------------------------|-----------------------------------|
 G|-----x--x-----x--x-----x--x--------|-----x--x-----x--x-----x--x--------|
 D|--5--x--x-----x--x-----x--x--------|--5--x--x-----x--x-----x--x--------|
 A|--5--x--x--7--x--x--5--x--x--7--5--|--5--x--x--7--x--x--5--x--x--7--5--|
 E|--3--------3--------3--------5--3--|--3--------3--------3--------5--3--|
 e|-----------------------------------|-----------------------------------|
 B|-----------------------------------|-----------------------------------|
 G|-----------------------------------|-----x--x-----x--x-----x--x--------|
 D|--5--x--x-----------7--7--x--9--7--|--5--x--x-----x--x-----x--x--------|
 A|--5--x--x--7--x--x--5--5--x--5--5--|--5--x--x--7--x--x--5--x--x--7--5--|
 E|--3--x--x--3--x--x-----------------|--3--------3--------3--------5--3--|
 e|-----------------------------------|----------------------------------|
 B|-----------------------------------|----------------------------------|
 G|-----------------------------------|----------------------------------|
 D|--3--x--x--7--x--x--5--x--x--7--5--|------------------5--5------------|
 A|--5--x--x--3--x--x--3--x--x--3--3--|--5---5--------5--------7p5-------|
 E|-----------------------------------|--3---3--6--7----------------7p5--|
 e|-----------------------------------|
 B|-----------------------------------|
 G|-----------------------------------|
 D|--5--x--x-----------7--7--x--9--7--|
 A|--5--x--x--7--x--x--5--5--x--5--5--|
 E|--3--x--x--3--x--x-----------------|

Outro
 
 e|--3---3---3---3---3---3---3---3--3--|--3---3---3---3---3---3---3---3--3--|
 B|--3---3---3---3---3---3---3---3--3--|--3---3---3---3---3---3---3---3--3--|
 G|--0---0---0---0---0---0---0---0--0--|--0---0---0---0---0---0---0---0--0--|
 D|--0---0---0---2---2---2---2---2--2--|--0---0---0---2---2---2---2---2--2--|
 A|--2---2-------3---3---3---3---3--3--|--2---2-------3---3---3---3---3--3--|
 E|--3---3-----------------------------|--3---3-----------------------------|
 e|--3---3---3---3---3---3---3---3--3--|---5---|----3-----|
 B|--3---3---3---3---3---3---3---3--3--|---3---|----3-----|
 G|--0---0---0---0---0---0---0---0--0--|---0---|----0-----|
 D|--0---0---0---2---2---2---2---2--2--|---0---|----2-----|
 A|--2---2-------3---3---3---3---3--3--|-------|----3-----|
 E|--3---3-----------------------------|-------|----------|
 e|--3--3-----1--0--------------------------------|
 B|--------3--------------------------------------|
 G|-----------------3--2--0-----------------------|
 D|--------------------------3--2--0--------------|
 A|-----------------------------------3--1--0-----|
 E|--------------------------------------------3--|

Guitar III (Acoustic)
Intro
 
 e|--3--3---3---|--3--3---3---|--3--3---3---|----3----|----3----|----3----|
 B|--3--3---3---|--3--3---3---|--3--3---3---|----3----|----3----|----3----|
 G|--0--0---0---|--0--0---0---|--0--0---0---|----0----|----0----|----0----|
 D|--0--0---2---|--0--0---2---|--0--0---2---|----0----|----0----|----0----|
 A|--2--2---3---|--2--2---3---|--2--2---3---|----2----|----2----|----2----|
 E|--3--3-------|--3--3-------|--3--3-------|----3----|----3----|----3----|
 e|----3----|----3----|----3----|----3----2---|-----------|------------|
 B|----3----|----3----|----3----|----3----3---|-----------|------------|
 G|----0----|----0----|----0----|----0----2---|-----------|------------|
 D|----0----|----0----|----0----|----0----0---|-----------|------------|
 A|----2----|----2----|----2----|----2--------|-----------|------------|
 E|----3----|----3----|----3----|----3--------|-----------|------------|

Solo
 
 e|----------------------------------|----------------------------------|
 B|-------6-------6-------6-------6--|-------3-------3-------3-------3--|
 G|--6/7-----6/7-----6/7-----6/7-----|--3/4-----3/4-----3/4-----3/4-----|
 D|----------------------------------|----------------------------------|
 A|----------------------------------|----------------------------------|
 E|----------------------------------|----------------------------------|
 e|------------------------------------------|---------------------------|
 B|---------3-----------------3--------------|---------3-----------------|
 G|--2h3h4-----2p0-----2h3h4-----4--0-----0--|--2h3h4-----4p2p0-------0--|
 D|-----------------0------------------0-----|-------------------2p0-----|
 A|------------------------------------------|---------------------------|
 E|------------------------------------------|---------------------------|

1st and 2nd Verse and Chorus
 
 e|-----3-----------3---3----------|-----3-----------3---3----------|
 B|-----3---3---3---3---3----------|-----3---3---3---3---3----------|
 G|-----0---0---0---0---0----------|-----0---0---0---0---0----------|
 D|-----0---0---0---0---0-------0--|-----0---0---0---0---0-------0--|
 A|--2--------------2------0h2-----|--2--------------2------0h2-----|
 E|--3--------------3--------------|--3--------------3--------------|
 e|------3----------------------------|-----3-----------3---3----------|
 B|------3---3---3---3-3--3--3--3--3--|-----3---3---3---3---3----------|
 G|------0---0---0---0h2--2--2--2--2--|-----0---0---0---0---0----------|
 D|------0---0---0---0-0--0--0--0--0--|-----0---0---0---0---0-------0--|
 A|--2--------------------------------|--2--------------2------0h2-----|
 E|--3--------------------------------|--3--------------3--------------|
 e|------3---3---3---3---3-----------|--3---3--------------------------|
 B|------3---3---3---3---3-----------|--3---3--------------------------|
 G|------0---0---0---0---0-----------|--0---0----------0--0------------|
 D|--2---2---0---0---2---0-----------|--0---0-------0--------2p0-------|
 A|--3---3-----------3------3--2--0--|--2---2--0h2----------------2p0--|
 E|----------------------------------|--3---3--------------------------|
 e|------3----------------------------|-----3-----------3---3----------|
 B|------3---3---3---3-3--3--3--3--3--|-----3---3---3---3---3----------|
 G|------0---0---0---0h2--2--2--2--2--|-----0---0---0---0---0----------|
 D|------0---0---0---0-0--0--0--0--0--|-----0---0---0---0---0-------0--|
 A|--2--------------------------------|--2--------------2------0h2-----|
 E|--3--------------------------------|--3--------------3--------------|

1st Solo
 
 e|-----------------------|
 B|--1--1--1--1--1--1--1--|
 G|--0--0--0--0--0--0--0--|
 D|--2--2--2--2--2--2--2--|
 A|--3--3--3--3--3--3--3--|
 E|-----------------------|
 e|-----3-----------3---3----------|-----3-----------3---3----------|
 B|-----3---3---3---3---3----------|-----3---3---3---3---3----------|
 G|-----0---0---0---0---0----------|-----0---0---0---0---0----------|
 D|-----0---0---0---0---0-------0--|-----0---0---0---0---0-------0--|
 A|--2--------------2------0h2-----|--2--------------2------0h2-----|
 E|--3--------------3--------------|--3--------------3--------------|
 e|------3----------------------------|-----3-----------3---3----------|
 B|------3---3---3---3-3--3--3--3--3--|-----3---3---3---3---3----------|
 G|------0---0---0---0h2--2--2--2--2--|-----0---0---0---0---0----------|
 D|------0---0---0---0-0--0--0--0--0--|-----0---0---0---0---0-------0--|
 A|--2--------------------------------|--2--------------2------0h2-----|
 E|--3--------------------------------|--3--------------3--------------|
 e|------3---3---3---3---3-----------|--3---3--------------------------|
 B|------3---3---3---3---3-----------|--3---3--------------------------|
 G|------0---0---0---0---0-----------|--0---0----------0--0------------|
 D|--2---2---0---0---2---0-----------|--0---0-------0--------2p0-------|
 A|--3---3-----------3------3--2--0--|--2---2--0h2----------------2p0--|
 E|----------------------------------|--3---3--------------------------|
 e|------3----------------------------|-----3-----------3---3----------|
 B|------3---3---3---3-3--3--3--3--3--|-----3---3---3---3---3----------|
 G|------0---0---0---0h2--2--2--2--2--|-----0---0---0---0---0----------|
 D|------0---0---0---0-0--0--0--0--0--|-----0---0---0---0---0-------0--|
 A|--2--------------------------------|--2--------------2------0h2-----|
 E|--3--------------------------------|--3--------------3--------------|

3rd Verse
 
 e|-----3-----------3---3----------|-----3-----------3---3----------|
 B|-----3---3---3---3---3----------|-----3---3---3---3---3----------|
 G|-----0---0---0---0---0----------|-----0---0---0---0---0----------|
 D|-----0---0---0---0---0-------0--|-----0---0---0---0---0-------0--|
 A|--2--------------2------0h2-----|--2--------------2------0h2-----|
 E|--3--------------3--------------|--3--------------3--------------|
 e|------3----------------------------|-----3-----------3---3----------|
 B|------3---3---3---3-3--3--3--3--3--|-----3---3---3---3---3----------|
 G|------0---0---0---0h2--2--2--2--2--|-----0---0---0---0---0----------|
 D|------0---0---0---0-0--0--0--0--0--|-----0---0---0---0---0-------0--|
 A|--2--------------------------------|--2--------------2------0h2-----|
 E|--3--------------------------------|--3--------------3--------------|
 e|------3---3---3---3---3-----------|--3---3--------------------------|
 B|------3---3---3---3---3-----------|--3---3--------------------------|
 G|------0---0---0---0---0-----------|--0---0----------0--0------------|
 D|--2---2---0---0---2---0-----------|--0---0-------0--------2p0-------|
 A|--3---3-----------3------3--2--0--|--2---2--0h2----------------2p0--|
 E|----------------------------------|--3---3--------------------------|
 e|------3----------------------------|
 B|------3---3---3---3-3--3--3--3--3--|
 G|------0---0---0---0h2--2--2--2--2--|
 D|------0---0---0---0-0--0--0--0--0--|
 A|--2--------------------------------|
 E|--3--------------------------------|

2nd Solo
 
 e|-----------------------|
 B|--1--1--1--1--1--1--1--|
 G|--0--0--0--0--0--0--0--|
 D|--2--2--2--2--2--2--2--|
 A|--3--3--3--3--3--3--3--|
 E|-----------------------|
 e|-----3-----------3---3----------|-----3-----------3---3----------|
 B|-----3---3---3---3---3----------|-----3---3---3---3---3----------|
 G|-----0---0---0---0---0----------|-----0---0---0---0---0----------|
 D|-----0---0---0---0---0-------0--|-----0---0---0---0---0-------0--|
 A|--2--------------2------0h2-----|--2--------------2------0h2-----|
 E|--3--------------3--------------|--3--------------3--------------|
 e|------3----------------------------|-----3-----------3---3----------|
 B|------3---3---3---3-3--3--3--3--3--|-----3---3---3---3---3----------|
 G|------0---0---0---0h2--2--2--2--2--|-----0---0---0---0---0----------|
 D|------0---0---0---0-0--0--0--0--0--|-----0---0---0---0---0-------0--|
 A|--2--------------------------------|--2--------------2------0h2-----|
 E|--3--------------------------------|--3--------------3--------------|
 e|------3---3---3---3---3-----------|--3---3--------------------------|
 B|------3---3---3---3---3-----------|--3---3--------------------------|
 G|------0---0---0---0---0-----------|--0---0----------0--0------------|
 D|--2---2---0---0---2---0-----------|--0---0-------0--------2p0-------|
 A|--3---3-----------3------3--2--0--|--2---2--0h2----------------2p0--|
 E|----------------------------------|--3---3--------------------------|
 e|------3----------------------------|-----3-----------3---3----------|
 B|------3---3---3---3-3--3--3--3--3--|-----3---3---3---3---3----------|
 G|------0---0---0---0h2--2--2--2--2--|-----0---0---0---0---0----------|
 D|------0---0---0---0-0--0--0--0--0--|-----0---0---0---0---0-------0--|
 A|--2--------------------------------|--2--------------2------0h2-----|
 E|--3--------------------------------|--3--------------3--------------|

4th Verse and Chorus
 
 e|-----3-----------3---3----------|-----3-----------3---3----------|
 B|-----3---3---3---3---3----------|-----3---3---3---3---3----------|
 G|-----0---0---0---0---0----------|-----0---0---0---0---0----------|
 D|-----0---0---0---0---0-------0--|-----0---0---0---0---0-------0--|
 A|--2--------------2------0h2-----|--2--------------2------0h2-----|
 E|--3--------------3--------------|--3--------------3--------------|
 e|------3----------------------------|-----3-----------3---3----------|
 B|------3---3---3---3-3--3--3--3--3--|-----3---3---3---3---3----------|
 G|------0---0---0---0h2--2--2--2--2--|-----0---0---0---0---0----------|
 D|------0---0---0---0-0--0--0--0--0--|-----0---0---0---0---0-------0--|
 A|--2--------------------------------|--2--------------2------0h2-----|
 E|--3--------------------------------|--3--------------3--------------|
 e|------3---3---3---3---3-----------|--3---3--------------------------|
 B|------3---3---3---3---3-----------|--3---3--------------------------|
 G|------0---0---0---0---0-----------|--0---0----------0--0------------|
 D|--2---2---0---0---2---0-----------|--0---0-------0--------2p0-------|
 A|--3---3-----------3------3--2--0--|--2---2--0h2----------------2p0--|
 E|----------------------------------|--3---3--------------------------|
 e|------3----------------------------|
 B|------3---3---3---3-3--3--3--3--3--|
 G|------0---0---0---0h2--2--2--2--2--|
 D|------0---0---0---0-0--0--0--0--0--|
 A|--2--------------------------------|
 E|--3--------------------------------|

Outro
 
 e|--3--3---3---|--3--3---3---|--3--3---3---|----------|---------|--------|
 B|--3--3---3---|--3--3---3---|--3--3---3---|----------|----1----|--------|
 G|--0--0---0---|--0--0---0---|--0--0---0---|----------|----0----|--------|
 D|--0--0---2---|--0--0---2---|--0--0---2---|----------|----2----|--------|
 A|--2--2---3---|--2--2---3---|--2--2---3---|----------|----3----|--------|
 E|--3--3-------|--3--3-------|--3--3-------|----------|---------|----3---|

************************************
| / slide up
| \ slide down
| h hammer-on
| p pull-off
| ~ vibrato
| + harmonic
| x Mute note
| b Bend
| pb Pre-bend
| br Bend release
| pbr Pre-bend release
| brb Bend release bend
************************************
Intro
[G] [C]  
[G] [C]  
[G] [C]  
[G] Well Yeah Yeah Yeah Oh Yeah One of these mornings it won't be long
Captains gonna call and I'll be gone
I'll be nine hundred mi[D]les away from [G]home
[G5] [G6] [G5] [G6] [G5]  
[G5] [G6] [G5] [G6] [G5]  
[G5] [G6] [G5] [G6] [G5]  
[G5] [G6] [G5] [G6] [G5]  
1st verse and Chorus
Well you can [G5]count the d[G6]ays I'm [G5]gone [G6] [G5]
you can [G5]tell the [G6]train I'm [G5]on [G6] [G5]
you can [G5]hear the w[G6]histle [D5]blow as s[D6]he r[D5]olls b[G5]y [G6] [G5]
[G6]she r[G5]olls b[C5]y [C6] [C5]
C6 C5 G5 N.C
rolls by
you can [G5]hear the [G6]whist[G5]le b[D5]low s[D6]he r[D5]olls [G5]by [G6] [G5] [G6] [G5]
2nd Verse and Chorus
my o[G5]lden s[G6]hoes are [G5]worn [G6] [G5]
my [G5]olden c[G6]lothes are [G5]torn [G6] [G5]
and I [G5]hate to [G6]go [D5]home now t[D6]his [D5]awa[G5]y [G6] [G5] [G6] [G5]
this [C5]away [C6] [C5] [C6] [C5]
C5 G5 N.C.
this away
I h[G5]ate [G6]to [G5]go [D5]home now [D6]this [D5]away
[C5]now now now now now a guitar
1st Solo
[G5] [G6] [G5] [G6] [G5]  
[G5] [G6] [G5] [G6] [G5]  
[G5] [G6] [D5] [D6] [D5]  
[G5] [G6] [G5] [G6] [G5]  
[C5] [C6] [C5] [C6] [C5]  
G5 N.C.
[G5] [G6] [G5] [D5] [D6] [D5]  
[G5] [G6] [G5] [G6] [G5]  
3rd Verse and Chorus
Well if my [G5]mama [G6]she says [G5]so [G6] [G5]
I'll [G5]railr[G6]oad no [G5]more [G6] [G5]
I'll [G5]side t[G6]rack my [D5]train [D6]and [D5]go ho[G5]me [G6] [G5] [G6] [G5]
[G5]and go [C5]home [C6] [C5]
C6 C5 G5 N.C.
and go home
[G5]side [G6]track [G5]my t[D5]rain [D6]and [D5]go home
[C5]one more time
2nd Solo
[G5] [G6] [G5] [G6] [G5]  
[G5] [G6] [G5] [G6] [G5]  
[G5] [G6] [D5] [D6] [D5]  
[G5] [G6] [G5] [G6] [G5]  
[C5] [C6] [C5] [C6] [C5]  
G5 N.C.
[G5] [G6] [G5] [D5] [D6] [D5]  
[G5] [G6] [G5] [G6] [G5]  
4th Verse and Chorus
If I [G5]die a [G6]railroad [G5]man [G6] [G5]
want to be [G5]buried [G6]in the s[G5]and [G6] [G5]
so I can [G5]hear old [G6]Number [D]nine as [D6]she r[D5]olls [G5]by [G6] [G5]
[G6]she [G5]rolls [C5]by [C6] [C5]
C6 C5 G5 N.C.
she rolls by
[G5]hear old [G6]Number [D5]nine as [D6]she r[D5]olls by
Outro
[G]yeah oh[C] oh oh
[G] [C]  
[G] [C]  
[C] [G]  

Important: The song above is NOT stored on the Chordie server. The original song is hosted at www.guitaretab.com. Chordie works as a search engine and provides on-the-fly formatting. Chordie does not index songs against artists'/composers' will. To remove this song please click here.

Text color:
Chord color:
Chord grids: 
Font size:    
Page size: 

C C5 C6 D D5 D6 G G5 G6
Rate #1 of 3 versions

Jango Player

Login - add to songbook

SHARE PAGE  



You need to log in to post comments