Guitar Tabs, Chords and Lyrics
Server problems seems to be fixed. Chordie has been experiencing problems with songs disappearing. These issues now seems to be fixed, but still verifying the fix. If you find anything strange, please email admin@chordie.com.


Country Strong  Blake Shelton

dekimasu presents - "Country Strong" by Blake Shelton, from "Startin' Fires" (2008)
(ug.dekimasu@spamgourmet.com)
Capo 2
Intro:
Guitar 1
 
 e|-----------------x-------------------------------x--3--------|
 B|-----------------x-------------------------------x--3--------|
 G|0-0-7-0-0-7--4h5-x--0---------0-0-7-0-0-7--0-----x--0--------|
 D|-5-5---5-5--5----x-----0-0-----5-5---5-5-----0h2-x--0--------|
 A|-----------------x------7------------------------x--2--------|
 E|-----------------x-------------------------------x--3--------|

Violin
 
 e|7-10-10-7------0--------7-----7-10-10-7------7-0-------------|
 B|----------8-8----8-10p8-----------------8-8------7-8---------|
 G|-------------------------------------------------------------|
 D|-------------------------------------------------------------|
 A|-------------------------------------------------------------|
 E|-------------------------------------------------------------|

[G]Cat Diesel Power cap [C]pulled down [G]low
makin that bacon, [D]row by [G]row
Can't get them muscles at the [C]Y-M-C-[G]A
it's from choppin' cotton, cuttin' corn and [D]slingin' that [G]hay
[Em]been heavy liftin' since the [C]crack of [G]dawn
no doubt about it that boy's [D]country [G]strong
[G]he's up in the mornin' yawnin' with those [C]work boots [G]on
workin' like hell 'til the dinner bell [D]brings him back [G]home
blue collar in his blood, [C]backwoods in his [G]bones
no doubt about it that boy's [D]country [G]strong
He wears an old felt hat on his head
got a saddle for a pillow, and the ground for a bed
spurs on his heels, reins in his hands
drivin' cattle, ropin' steers and burnin' his brand
there ain't no lettin' up all day long
no doubt about it that boy's country strong
he's up in the mornin' yawnin' with those Tony Llama's on
workin' like hell 'til the dinner bell brings him back home
blue collar in his blood, backwoods in his bones
no doubt about it that boy's country strong
Yea behind every good man, there's a woman
she's the one thing that keeps him goin', keeps him goin'
she's up in the mornin' yawnin' with that coffee pot on
workin' like hell 'til the dinner bell brings him back home
blue collar in her blood, backwoods in her bones
no doubt about it that girl's country strong
cowboy's, plowboys, good hearted women
they're all country strong

Important: The song above is NOT stored on the Chordie server. The original song is hosted at www.guitaretab.com. Chordie works as a search engine and provides on-the-fly formatting. Chordie does not index songs against artists'/composers' will. To remove this song please click here.

Text color:
Chord color:
Chord grids: 
Font size:    
Page size: 

C D Em G
Rate #1 of 3 versions

Jango Player

Login - add to songbook

SHARE PAGE  




You need to log in to post comments