Guitar Tabs, Chords and Lyrics
Server problems seems to be fixed. Chordie has been experiencing problems with songs disappearing. These issues now seems to be fixed, but still verifying the fix. If you find anything strange, please email admin@chordie.com.


Sunny in Seattle  Blake Shelton

INTRO
C D G G x2
 
 E|-----------------------------------------------------------------------|
 B|-----------8-----10--10--8--10--12--10--8--10--10--8--10b11--8--10b11--|
 G|--7--7--9-----9--------------------------------------------------------|
 D|-----------------------------------------------------------------------|
 A|-----------------------------------------------------------------------|
 E|-----------------------------------------------------------------------|
 E|-------------------------------------------------------------10------------|
 B|-----------8-----10--10--8--10--12--10--8--10--10--8--10b11------11r10--8--|
 G|--7--7--9-----9------------------------------------------------------------|
 D|---------------------------------------------------------------------------|
 A|---------------------------------------------------------------------------|
 E|---------------------------------------------------------------------------|

CHORUS
When it's [G]sunny in Seattle and it's [Em]snowing down in New Or[Bm]leans[D]
And them [G]boys from Amarillo stop [Em]wearin' those boots and [Bm]jeans[D]
[C] When Memphis ain't[D] got the[G] blues[C], that's when I'll stop[D] lovin'[Em] you
When it's [C]sunny in Seattle and [D]snowing down in New Or[G]leans
VERSE
[G]Baby,[C] I don't mind you [G]askin'[C] [G]
If there's [G]gonna come a day[D] when I [C]say good[G]bye
[G]Maybe,[C] I guess anything could [G]happen[C] [G]
But it's as [G]close to never[D] as you're [C]ever gonna [G]find[D]
CHORUS
When it's [G]sunny in Seattle and it's [Em]snowing down in New Or[Bm]leans[D]
And them [G]boys from Amarillo stop [Em]wearin' those boots and [Bm]jeans[D]
When there's[C] no tequila in [D]Mexi[G]co,[C] that's when I'm gonna [D]let you [Em]go
When it's [C]sunny in Seattle and [D]snowing down in New Or[G]leans
BRIDGE
[C]Darlin' [Bm]some things [D]won't ever [G]change
[C]My love [Bm]is one of those [D]things
INSTRUMENTAL
G Em Bm D x2
TAG
[C] When New York is a [D]one horse [G]town,[C] that's when I won't [D]need you '[Em]round
When it's [C]sunny in Seattle and [D]snowing down in New Or[Em]lean[C]s
When it's [Am]sunny in Seattle and [D]snowing down in New Or[C]leans[D] [G]
OUTRO
[C] [D] [G]  
 
 E|-------------------------------------------------------------10------------|
 B|-----------8-----10--10--8--10--12--10--8--10--10--8--10b11------11r10--8--|
 G|--7--7--9-----9------------------------------------------------------------|
 D|---------------------------------------------------------------------------|
 A|---------------------------------------------------------------------------|
 E|---------------------------------------------------------------------------|


Important: The song above is NOT stored on the Chordie server. The original song is hosted at www.guitaretab.com. Chordie works as a search engine and provides on-the-fly formatting. Chordie does not index songs against artists'/composers' will. To remove this song please click here.

Text color:
Chord color:
Chord grids: 
Font size:    
Page size: 

Am Bm C D Em G
Rate #1 of 3 versions

Login - add to songbook

SHARE PAGE  



You need to log in to post comments