Guitar Tabs, Chords and Lyrics
Server problems seems to be fixed. Chordie has been experiencing problems with songs disappearing. These issues now seems to be fixed, but still verifying the fix. If you find anything strange, please email admin@chordie.com.


Nightmare on Providence Street   Blind Witness

 
 [Riff 1] - [00:00] - [00:20----------------------------------------------| - [2x]
 - -----------------------------------------------------------------------|
 - -----------------------------------------------------------------------|
 - -----------------------------------------------------------------------|
 - -------8---7----------------------------8---7--------------------------|
 - ---------------8---5-----4h5h7--4---------------8---5-----5---5p4------|
 - -0-0-0---0---0---0---0-0------0---0-0-0---0---0---0---0-0---0-----7----|

 


 PM ..... . . . ... . ..... . . . ... .


 


 

 
 - --------------------------------------------------------------------|
 - --------------------------------------------------------------------|
 - ----------------------------------------------------------6h7p6-----|
 - -------8---7----------------------------------------5-7-8-------8-7-|
 - ---------------8---5-----4h5h7--4-------4-5-7-5-7-8-----------------|
 - -0-0-0---0---0---0---0-0------0---5-7-8-----------------------------|

 


 PM ..... . . . ... .


 


 [Riff 2] - [00:20] - [00:22]


 

 
 - ---------------------------------|
 - ---------------------------------|
 - ---------------------------------|
 - -8-7-5---------------------------|
 - -------8-7-4-5-------------------|
 - ---------------------------------|
 ----------------------------------------------------------------------------
 [Riff 3] - [00:22] - [00:41-----------------------------------------| - [4x]
 - ------------------------------------------------------------------|
 - ------------------------------------------------------------------|
 - ------------------------------------------------------------------|
 - ------------------------------------------------------------------|
 - -000-000-000-----000-000-0-0-000-000-------------000-000---0------|
 - -000-000-000-----000-000-0-0-000-000-------------000-000---0------|

 


 PM ...............................................................


 


 

 
 [Riff 4] - [00:32] - [00:36--------------------------| - [2x]
 - ---------------------------------------------------|
 - ---------------------------------------------------|
 - ---------------------------------------------------|
 - -5h7h8-------------------5h7h8-------------7h8h10--|
 - -------5h7h8-4h5h7-------------5h7h8-4h5h7---------|
 - -------------------5h7h8---------------------------|
 ----------------------------------------------------------------------------

 


 


 [Riff 1] - [00:41] - [01:00] - [2x]


 


 

 
 ----------------------------------------------------------------------------
 [Riff 5] - [01:00] - [01:20-----------------------------------------| - [4x]
 - ------------------------------------------------------------------|
 - ------------------------------------------------------------------|
 - ------------------------------------------------------------------|
 - ------------------------------------------------------------------|
 - -000-000-000-----000-000-0-0-000-000-------------0-0-0-0---0------|
 - -000-000-000-----000-000-0-0-000-000-------------0-0-0-0---0------|

 


 PM ...............................................................


 


 

 
 ----------------------------------------------------------------------------
 [Riff 6] - [01:20] - [01:58-----------------------------------------| - [4x]
 - ------------------------------------------------------------------|
 - ------------------------------------------------------------------|
 - ------------------------------------------------------------------|
 - ---7-------------------------------7------------------------------|
 - -----0h7h8-------5---5---5p4---------0h7h8-------5---5---7h8------|
 - -0---------0-0-0---0---0-----0-0-0---------0-0-0---0---0-----0-0--|

 


 PM . ..... . . ..... ..... . . ...


 


 

 
 - -----------------------------------------------------------------|
 - -----------------------------------------------------------------|
 - -----------------------------------------------------------------|
 - ---7---------------------------------7-----7---------------------|
 - -----0h7h8-------1---1---1p0-------7-----7-----7-8---8---8-7-5-7-|
 - -0---------0-0-0---0---0-----0-0-5-----5-----5-----8---8---------|

 


 PM . ..... . . ....... ... ... . .


 


 

 
 [Riff 7] - [01:39] - [01:58-----------------------------------------| - [2x]
 - ------------------------------------------------------------------|
 - ------------------------------------------------------------------|
 - ------------------------------------------------------------------|
 - ---7-------------------------------7------------------------------|
 - -----0h7h8-------5---5---5p4---------0h7h8-------5---5---7h8------|
 - -0---------0-0-0---0---0-----0-0-0---------0-0-0---0---0-----0-0--|

 


 PM . ..... . . ..... ..... . . ...


 


 

 
 - ----------------------------------------------------------------------|
 - ----------------------------------------------------------------------|
 - ----------------------------------------------------------------------|
 - ---7---------------------------------10----10-------------------------|
 - -----0h7h8-------5---5---5p4-------10----10----10-12---12---12-10-7-8-|
 - -0---------0-0-0---0---0-----0-0-8-----8-----8-------8----8-----------|

 


 PM . ..... . . ....... .... .... . .


 


 

 
 ----------------------------------------------------------------------------

 


 


 [Riff 8] - [01:58] - [02:00]


 

 
 - --------------------------------------|
 - --------------------------------------|
 - --------------------------------------|
 - -8~--------------10~-------------12\--|
 - -8~--------------10~-------------12\--|
 - -8~--------------10~-------------12\--|

 


 


 [Riff 9] - [02:10] - [02:20]


 

 
 - -----------------------------------------------------------------|
 - -----------------------------------------------------------------|
 - -----------------------------------------------------------------|
 - -0~--------------\\\\\\\\\\\\\\\---------------------------------|
 - -0~--------------\\\\\\\\\\\\\\\-----7---7-8---------7---7-8-----|
 - -0~--------------\\\\\\\\\\\\\\\-0-0---0-----0-0-0-0---0-----0-0-|

 


 PM ... . ....... . ...


 


 

 
 [Riff 10] - [02:00] - [02:39----------------------------------------| - [4x]
 - ------------------------------------------------------------------|
 - ------------------------------------------------------------------|
 - ------------------------------------------------------------------|
 - -7-----------7---7-----------7---8-----------8---8-----------8----|
 - ------------------------------------------------------------------|
 - ---0-0-0-0-0---0---0-0-0-0-0---0---0-0-0-0-0---0---0-0-0-0-0---0--|

 


 PM ......... . ......... . ......... . ......... .


 


 

 
 - -----------------------------------------------------------------|
 - -----------------------------------------------------------------|
 - -----------------------------------------------------------------|
 - -5-----------5---5-----------5-----------------------------------|
 - -------------------------------------7---7h8---------7---7h8-----|
 - ---0-0-0-0-0---0---0-0-0-0-0---0-0-0---0-----0-0-0-0---0-----0-0-|

 


 PM ......... . ......... ..... . ....... . ...


 


 

 
 [Riff 11] - [02:20] - [02:39----------------------------------------| - [2x]
 - ------------------------------------------------------------------|
 - ------------------------------------------------------------------|
 - ------------------------------------------------------------------|
 - -3-----------3---3-----------3---5-----------5---5-----------5----|
 - ------------------------------------------------------------------|
 - ---0-0-0-0-0---0---0-0-0-0-0---0---0-0-0-0-0---0---0-0-0-0-0---0--|

 


 PM ......... . ......... . ......... . ......... .


 


 

 
 - -----------------------------------------------------------------|
 - -----------------------------------------------------------------|
 - -----------------------------------------------------------------|
 - -2-----------2---2-----------2-----------------------------------|
 - -------------------------------------3---3h5---------3---3h5-----|
 - ---0-0-0-0-0---0---0-0-0-0-0---0-0-0---0-----0-0-0-0---0-----0-0-|

 


 PM ......... . ......... ..... . ....... . ...


 


 

 
 ----------------------------------------------------------------------------
 [Riff 12] - [02:39] - [02:58----------------------------------------| - [4x]
 - ------------------------------------------------------------------|
 - ------------------------------------------------------------------|
 - ---------------------------------------------------------5--------|
 - -------5-7-8-------5-7-8-7-5-----------5-7-8-------5-7-8---8-7-5--|
 - -5-7-8-------5-7-8-----------8-7-5-7-8-------5-7-8----------------|
 - ------------------------------------------------------------------|
 [Riff 13] - [02:48] - [02:58-------------------| - [2x]
 - ---------------------------------------------|
 - ---------------------------------------------|
 - ---------------------------------------------|
 - ---------8-10-12---------8-10-12-10-8--------|
 - -8-10-12---------8-10-12--------------12-10--|
 - ---------------------------------------------|
 - -------------------------------------------|
 - -------------------------------------------|
 - ---------------------------------9---------|
 - ---------8-10-12---------8-10-12---12-10-8-|
 - -8-10-12---------8-10-12-------------------|
 - -------------------------------------------|
 ----------------------------------------------------------------------------
 [Riff 14] - [02:58] - [03:30----------------------------------------| - [2x]
 - ------------------------------------------------------------------|
 - ------------------------------------------------------------------|
 - ------------------------------------------------------------------|
 - -2---------------------------2------------------------------------|
 - -1-------1-------1-1-1-1-----1-------1-1-1-1-----1-1---1---1-1----|
 - -2-------2-------2-2-2-2-----2-------2-2-2-2-----2-2---2---2-2----|

 


 PM ............... .........................


 


 

 
 - -----------------------------------------------------------------|
 - -----------------------------------------------------------------|
 - -----------------------------------------------------------------|
 - -2---------------------------2-------------------2-----3-----4---|
 - -1-------1-------1-1-1-1-----1-------1-1-1-1-----1-----2-----3---|
 - -2-------2-------2-2-2-2-----2-------2-2-2-2-----2-----3-----4---|

 


 PM ............... .......


 


 

 
 - -----------------------------------------------------------------|
 - -----------------------------------------------------------------|
 - -----------------------------------------------------------------|
 - -5---------------------------5-----------------------------------|
 - -4-------4-------4-4-4-4-----4-------4-4-4-4-----4-4---4---4-4---|
 - -5-------5-------5-5-5-5-----5-------5-5-5-5-----5-5---5---5-5---|

 


 PM ............... .........................


 


 

 
 - -----------------------------------------------------------------|
 - -----------------------------------------------------------------|
 - -----------------------------------------------------------------|
 - -5---------------------------5-------------------5-----4-----3---|
 - -4-------4-------4-4-4-4-----4-------4-4-4-4-----4-----3-----2---|
 - -5-------5-------5-5-5-5-----5-------5-5-5-5-----5-----4-----3---|

 


 PM ............... .......


 


 

 
 ----------------------------------------------------------------------------

 


 


 [Riff 15] - [03:30] - [03:36]


 

 
 - -----------------|
 - -----------------|
 - -----------------|
 - -2\--------------|
 - -1\--------------|
 - -2\--------------|
 ----------------------------------------------------------------------------


Important: The song above is NOT stored on the Chordie server. The original song is hosted at www.guitaretab.com. Chordie works as a search engine and provides on-the-fly formatting. Chordie does not index songs against artists'/composers' will. To remove this song please click here.

This song is displayed as text-only. Transposing and tuning is only available for chordpro-songs.
Rate #1 of 1 versions

Login - add to songbook

SHARE PAGE  




You need to log in to post comments