Guitar Tabs, Chords and Lyrics
Server problems seems to be fixed. Chordie has been experiencing problems with songs disappearing. These issues now seems to be fixed, but still verifying the fix. If you find anything strange, please email admin@chordie.com.


V.A.L.I.S.  Bloc Party

Guitar 1 (Russell)
(0:03)
[C]  
 
 E|--------------------------------|--------------------------------|
 B|--------------------------------|--------------------------------|
 G|--------------------------------|--------------------------------|
 D|--------------------------------|--------------------------------|
 A|--3-3---3-3---3---3-3---3-3---3-|--3-3---3-3---3---3-3---3-3---3-|
 E|--------------------------------|--------------------------------|x2

(0:28) and (1:30).
[Em7] [Cmaj7]  
 
 E|--------------------------------|--------------------------------|
 B|--------------------------------|--------------------------------|
 G|--------------------------------|--------------------------------|
 D|--------------------------5---5-|--------------------------------|
 A|--7-7---7-7---7---7-7---7-------|--3-3---3-3---3---3-3---3-5---7-|
 E|--------------------------------|--------------------------------|x2

(0:40) and (1:42).
[D] [Em]  
 
 E|--------------------------------|--------------------------------|
 B|7~------------------------------|8~------------------------------|
 G|7~------------------------------|9~------------------------------|
 D|7~------------------------------|9~------------------------------|
 A|5~------------------------------|7~------------------------------|
 E|--------------------------------|--------------------------------|x1

[D] [D#dim] [D#dim/F#]  
 
 E|--------------------------------|-------------------------------|
 B|7~------------------------------|7~--------------10~------------|
 G|7~------------------------------|5~--------------8~-------------|
 D|7~------------------------------|7~--------------10~------------|
 A|5~------------------------------|6~--------------9~-------------|
 E|--------------------------------|-------------------------------|x1

(0:52) and (1:54).
 
 E|--------------------------------|--------------------------------|
 B|--------------------------------|--------------------------------|
 G|--------------4-------------5-4-|--------------4-----------------|
 D|--5-5---5-7-------5-5---5-5-----|--5-5---5-7-------5---5---5---5-|
 A|--------------------------------|--------------------------------|
 E|--------------------------------|--------------------------------|x4

The last repeat before the second chorus, play:
 
 E|--------------------------------|--------------------------------|
 B|--------------------------------|------------------------4-5-7-7-|
 G|--------------4-------------5-4-|--------------4-----------------|
 D|--5-5---5-7-------5-5---5-5-----|--5-5---5-7-------5---5---------|
 A|--------------------------------|--------------------------------|
 E|--------------------------------|--------------------------------|x1

(2:20)
 
 E|--------------------------------|--------------------------------|
 B|--------------------------------|--------------------------------|
 G|--------------------------------|------------------------4-5-7-7-|
 D|5-5-5---5-5---5---5-5---5-------|--------------------------------|
 A|--------------------------7---7-|--5-5---5-5---5---5-5-----------|
 E|--------------------------------|--------------------------------|x1
 E|--------------------------------|--------------------------------|
 B|--------------------------------|--------------------------------|
 G|--------------------------------|------------------------4-5-7-7-|
 D|--5-5---5-5---5---5-5---5-------|--------------------------------|
 A|--------------------------7---7-|--5-5---5-5---5---5-5-----------|
 E|--------------------------------|--------------------------------|x2
 E|--------------------------------|--------------------------------|
 B|--------------------------------|--------------------------------|
 G|--------------------------------|--------------------------------|
 D|--5-5---5-5---5---5-5---5-------|--------------------------------|
 A|--------------------------7---7-|--5-5---5-5---5-----------------|
 E|--------------------------------|--------------------------------|x1

(2:44)
 
 E|--------------------------------|--------------------------------|
 B|--------------------------------|--------------------------------|
 G|------------5-4-------------5-4-|------------5-4-----------------|
 D|--5-5---5-5-------5-5---5-5-----|--5-5---5-5-------5---5---5---5-|
 A|--------------------------------|--------------------------------|
 E|--------------------------------|--------------------------------|x4

(3:10)
 
 E|--------------------------------|--------------------------------|
 B|--------------------------------|--------------------------------|
 G|--------------------------------|--------------------------------|
 D|--5---5---5---5---5---5---5---5-|---5---5---5--------------------|
 A|--------------------------------|-------------7-5----------------|
 E|--------------------------------|--------------------------------|x1

Guitar 2 (Kele)
(0:03)
I don't know if he actually plays the open B string, or if it's a third guitar track,
but either way, it adds a nice atmospheric touch.
 
 E|--------------------------------|--------------------------------|
 B|0-0-0-0-0-0-0-0-0-0-0-0-0-0-0-0-|0-0-0-0-0-0-0-0-0-0-0-0-0-0-0-0-|
 G|5-5-5-5-5-5-5-5-5-5-5-5-5-5-5-5-|5-5-5-5-5-5-5-5-5-5-5-5-5-5-5-5-|
 D|--------------------------------|--------------------------------|
 A|--------------------------------|--------------------------------|
 E|--------------------------------|--------------------------------|x1
 E|--------------------------------|--------------------------------|
 B|0-0-0-0-0-0-0-0-0-0-0-0-0-0-0-0-|0-0-0-0-0-0-0-0-0-0-0-0-0-0-0-0-|
 G|7-7-7-7-7-7-7-7-7-7-7-7-7-7-7-7-|9-9-9-9-9-9-9-9-9-9-9-9-9-9-9-9\|
 D|--------------------------------|--------------------------------|
 A|--------------------------------|--------------------------------|
 E|--------------------------------|--------------------------------|x1

(0:28) and (1:30).
 
 E|--------------------------------|--------------------------------|
 B|--------------------------------|--------------------------------|
 G|7---7---7---7---7---7---7---7---|4---4---4---4---4---4---4---4---|
 D|--------------------------------|--------------------------------|
 A|--------------------------------|--------------------------------|
 E|--------------------------------|--------------------------------|x1
 E|--------------------------------|--------------------------------|
 B|--------------------------------|--------------------------------|
 G|7---7---7---7---7---7---7---7---|4---4---4---4---4---4---5---5---|
 D|--------------------------------|--------------------------------|
 A|--------------------------------|--------------------------------|
 E|--------------------------------|--------------------------------|x1

(0:40) and (1:42).
I'm pretty sure Russell and Kele play the same thing at this part,
but with different effects.
[D] [Em]  
 
 E|--------------------------------|--------------------------------|
 B|7~------------------------------|8~------------------------------|
 G|7~------------------------------|9~------------------------------|
 D|7~------------------------------|9~------------------------------|
 A|5~------------------------------|7~------------------------------|
 E|--------------------------------|--------------------------------|x1

[D] [D#dim] [D#dim/F#]  
 
 E|--------------------------------|-------------------------------|
 B|7~------------------------------|7~--------------10~------------|
 G|7~------------------------------|5~--------------8~-------------|
 D|7~------------------------------|7~--------------10~------------|
 A|5~------------------------------|6~--------------9~-------------|
 E|--------------------------------|-------------------------------|x1

(0:52) and (1:54) and (2:44).
I got lazy with the tabbing, but it's just repeated notes, so I hope that's okay.
 
 E|-------|------------|-------|---------------------|
 B|-------|------------|-------|13(x3)-12(x5)--------|
 G|12(x32)|9(x3)-7(x29)|12(x32)|--------------12(x24)|
 D|-------|------------|-------|---------------------|
 A|-------|------------|-------|---------------------|
 E|-------|------------|-------|---------------------|

(2:20)
 
 E|------|------|------|-------|

B|5(x16)|8(x16)|8(x16)|12(x16)|
G|5(x16)|7(x16)|9(x16)|12(x16)|
 
 D|------|------|------|-------|
 A|------|------|------|-------|
 E|------|------|------|-------|x2

(3:10)
 
 E|--------|
 B|--------|

G|12(x24)\|
 
 D|--------|
 A|--------|
 E|--------|x1


Important: The song above is NOT stored on the Chordie server. The original song is hosted at www.guitaretab.com. Chordie works as a search engine and provides on-the-fly formatting. Chordie does not index songs against artists'/composers' will. To remove this song please click here.

Text color:
Chord color:
Chord grids: 
Font size:    
Page size: 

C Cmaj7 D D#dim D#dim/F# Em Em7
Rate #3 of 3 versions

Jango Player

Login - add to songbook

SHARE PAGE  




You need to log in to post comments