Guitar Tabs, Chords and Lyrics
Server problems seems to be fixed. Chordie has been experiencing problems with songs disappearing. These issues now seems to be fixed, but still verifying the fix. If you find anything strange, please email admin@chordie.com.


(We Ain't Got) Nothin' Yet  Blues Magoos

"We Ain't Got Nothin' Yet"
(Gilbert - Scala - Esposito)
Intro, part 1:
[Cm] v v v v v v v v
 
 ------------|-10-8-6-10-8-6-10-8-6-10-8-6-
 ------------|-----------------------------
 ------------|-----------------------------
 ------------|-----------------------------
 ------------|-----------------------------
 ------------|-----------------------------

^^^^^^^^^^^^^^^^^^^^^^^^^^^ 1/8-note triplets
[Bb/G] v v v v v v v v
 
 ------------|-10-8-6-10-8-6-10-8-6-10-8-6-
 ------------|-----------------------------
 ------------|-----------------------------
 ------------|-----------------------------
 ------------|-----------------------------
 ------------|-----------------------------

^^^^^^^^^^^^^^^^^^^^^^^^^^^ 1/8-note triplets
Intro, part 2:
bass (2X; doubled by organ 2nd time and through verses; band
enters 2nd time)
[(Cm)] v v [(Bb)] v v [(Cm)] v v [(F)] v v
 
 ---|-------------------------|-------------------------
 ---|-------------------------|-------------------------
 ---|-------------------------|-------------------------
 ---|-------1-----------------|-------1-----3----1------
 (1)|-3----------31----------1|-3----------3------3----1
 ---|-------------------3-----|-------------------------

Verse 1:
[Cm]One day you're [Bb]up and the n[Cm]ext day you're d[F]own
You c[Cm]an't face the w[Bb]orld with your h[Cm]ead to the gr[F]ound
The g[Cm]rass is always g[Bb]reener on the o[Cm]ther side, they s[F]ay
So d[Cm]on't worry, b[Bb]oys, life will [Cm]be sweet some d[F]ay
[Cm]Oh, [Bb]oh, [Cm]oh, [F]oh
[Cm]Oh, [Bb]oh, [Cm]oh, [F]oh
(as per intro, part 1):
We [Cm]made enough mistakes
[Bb/G]But you know we got what it takes
Chorus:
Oh, we a[Am]in't got nothin' y[G]et
No, we a[Am]in't got nothin' y[D]et
Link:
(guitar: ascending C minor pentatonic scale)
[Cm] [Eb] [F] [G]  
[/] [/] [/] [/] [/] [/] [/] [/] [/] [/] [/] [/] [/] [/] [/] [/] 
[repeat intro, part 2] 
Verse 2:
Nothin' can hold us and nothin' can keep us down
And someday our names will be spread all over town
We can get in while the getting is good
So make it on your own, yeah, you know that you could
Oh, oh, oh, oh
Oh, oh, oh, oh
We got to make the break
'Cause we got too much at stake
[repeat cborus] 
[repeat link] 
guitar solo over verse chord progression [4X]
We made enough mistakes
But you know we got what it takes
[repeat cborus] 
[repeat intro, part 1; end cold on Cm] 
-- another ace 60's tab from Andrew Rogers

Important: The song above is NOT stored on the Chordie server. The original song is hosted at www.guitaretab.com. Chordie works as a search engine and provides on-the-fly formatting. Chordie does not index songs against artists'/composers' will. To remove this song please click here.

Text color:
Chord color:
Chord grids: 
Font size:    
Page size: 

Am Bb Bb/G Cm D Eb F G
Rate #2 of 5 versions

Login - add to songbook

SHARE PAGE  




You need to log in to post comments