Guitar Tabs, Chords and Lyrics
Server problems seems to be fixed. Chordie has been experiencing problems with songs disappearing. These issues now seems to be fixed, but still verifying the fix. If you find anything strange, please email admin@chordie.com.


A Beautiful Night for Love  Bob Catley

BOB CATLEY ? A Beautiful Night For Love
from the Legends (1999) record
Intro:
 
 e-----|-------------------------|---------------------|
 B---3-|-5----5-7-8--7--5--------|-------------------3-|
 G-4---|-------------------5-----|-4----5-4--------4---|
 D-----|-----------------------5-|------------7--------|
 A-----|-------------------------|---------------------|
 E-----|-------------------------|---------------------|

[Em] [C] [G] [D] 
 
 e----------------------|----------------------------|
 B-5----5-7-8-----------|----------8-8-7-7-----------|
 G--------------7-5---4-|-4---2------------9-9-7-7---|
 D----------------------|--------------------------9-|
 A----------------------|----------------------------|
 E----------------------|----------------------------|

[Em] [G] [C] [D]  
 
 e-------------------------|---------------------|
 B-5----5-7-8--7--5--------|---------------------|
 G-------------------5-----|-4----5-4----------4-|
 D-----------------------5-|------------7----7---|
 A-------------------------|---------------------|
 E-------------------------|---------------------|

[Em] [C] [G] [D] 
 
 e----------------------|----------------|
 B------3-5-3-----------|-5----------3---|
 G-5-----------4--2--0--|-------2--2-----|
 D----------------------|----------------|
 A----------------------|----------------|
 E----------------------|----------------|

[Am] [G] [C] [D]  
Riff A:
 
 e-------------------------|
 B----8-7-5-7--------------|
 G-------------7-----7-----|
 D----------------7----5-4-|
 A-------------------------|
 E-------------------------| 4x

[Em] [D]  
Verse 1:
Were the [Em]last of your [C]tears [G]drops in the [D]ocean?
Do the [Em]dreams you con[C]ceal, guide the [G]way? [D]
Is a [Em]past full of [C]fear, [G]bound [C]by e[D]motions?
Till a [Am]time when the [G]sun might turn those [C]winter skies[D] to summer nights
Riff A 2x
Verse 2:
How the [Em]last hundred [C]years [G]passed in a [D]moment
How the [Em]sepia [C]scenes fade to [G]grey [D]
Was the [Em]great lovers' [C]dream [G]crowned [C]by de[D]votion?
Am G C D Fill 1
As they climbed on a comet's tail across the sky that never dies
Fill 1:
 
 e---------------------|
 B---------------------|
 G---------------------|
 D---5-5-4-4-----------|
 A-----------7-7-5-5---|
 E-------------------7-|
 PM---------------|

Chorus:
For to[Em]night is a [C]beautiful night for [G]love [D]
Em G C D Fill 1
You and I, like the stars, collide together
What a [Em]night, what a [C]beautiful night for [G]love [D]
Catch the [Am]moon as it [G]falls into your [C]hands,[D] like precious sand
Riff A 4x
Verse 3:
From the [Em]rain battered [C]hills, oh, [G]I heard you [D]calling
On the [Em]mist covered [C]fields, where we [G]lay [D]
Then at [Em]last you a[C]ppeared, [G]caught [C]for a [D]moment
Am G C D Fill 1
For the light that I held for you through endless night, still burns bright
Chorus
Riff A 4x
Solo rhythm:
Em, C, G, D
Em, C, G, D
Em, C, G, C, D
Am, G, C, D, Fill 1
Chorus
Riff A 8x

Important: The song above is NOT stored on the Chordie server. The original song is hosted at www.guitaretab.com. Chordie works as a search engine and provides on-the-fly formatting. Chordie does not index songs against artists'/composers' will. To remove this song please click here.

Text color:
Chord color:
Chord grids: 
Font size:    
Page size: 

Am C D Em G
Rate #0 of 2 versions

Login - add to songbook

SHARE PAGE  



You need to log in to post comments