Guitar Tabs, Chords and Lyrics
Server problems seems to be fixed. Chordie has been experiencing problems with songs disappearing. These issues now seems to be fixed, but still verifying the fix. If you find anything strange, please email admin@chordie.com.


Turn the Page  Bob Seger

Title: Turn the Page
Chords Used: Em 022000
D x00232
A x02220
C x32010
Intro/Outro on Sax
 
 |----14/15\14----------------------15\14--------------------------------------|
 |-------------15----12---------12--------15----12-----------------------------|
 |----------------14---------14--------------14----14-12\11--------------------|
 |----------------------------------------------------------12\7/9-------------|
 |-----------------------------------------------------------------------------|
 |-----------------------------------------------------------------------------|

Pattern
[Em] [D] [A] [C]  
 
 |-----------------------------------------------------------------------------|
 |-----------------------------------------------------------------------------|
 |-------------------------2---2-----------2---2-----------0---0---------------|
 |-------2----2-----------0---0-----------2---2-----------2---2----------------|
 |------2----2---------0-----0---------0-----0---------3-----3-----------------|
 |---0------0------------------------------------------------------------------|

[Em]On a long and lonesome highway east of Omaha
You c[D]an listen to the engine moanin out as one lone song
You c[A]an think about the woman, or the girl you knew the night before[Em]
[Em]But your thoughts will so be wandering the way they always do
When yo[D]u're riding sixteen hours and there's nothing much to do
And yo[A]u don't feel much like ridin; you just wish the trip was through[Em]
CHORUS
Say here I [D]am, on the road[Em] again
There I [D]am, up on the st[Em]age
Here I g[D]o, playing the st[A]ar again
There I [C]go,[D] turn the [Em]page
[Em]You walk into a restaurant, strung out from the road
And y[D]ou feel the eyes upon you, as you're shaking off the cold
You p[A]retend it doesn't bother you, but you just want to explode[Em]
[Em]Most times you can't hear 'em talk, other times you can
All t[D]he same 'ole cliche's is that a woman or a man
And y[A]ou always seem outnumbered; you don't dare make a stand[Em]
CHORUS
Here I a[D]m, on the road[Em] again
There I [D]am, up on the st[Em]age
Here I g[D]o, playing the s[A]tar again
There I [C]go,[D] turn the [Em]page
[Em]Out there in the spotlight, you're a million miles away
E[A]very ounce of energy, you try to give away
As the s[D]weat pours out your body, like the music that you play[Em]
[Em]Later in the evening, as you lie awake in bed
With the ec[D]ho's of the amplifiers, ringin in your head
You sm[A]oke the day's last cigarette, remembering what you said[Em]
CHORUS
Here I a[D]m, on the road[Em] again
There I [D]am, up on the st[Em]age
Here I g[D]o, playing the s[A]tar again
There I [C]go,[D] turn the [Em]page
Guitar Outro
Aah Here I[D] am, on the ro[Em]ad again
There I [D]am, up on the st[Em]age
Here I g[D]o, playing the s[A]tar again
There I [C]go
There [D]I go
Outro on Sax
 
 |-------15\14----------------------15\14--------------------------------------|
 |-------------15----12---------12--------15----12-----------------------------|
 |----------------14---------14--------------14----14-12\11--------------------|
 |----------------------------------------------------------12\7/9-------------|
 |-----------------------------------------------------------------------------|
 |-----------------------------------------------------------------------------|


Important: The song above is NOT stored on the Chordie server. The original song is hosted at www.guitaretab.com. Chordie works as a search engine and provides on-the-fly formatting. Chordie does not index songs against artists'/composers' will. To remove this song please click here.

Text color:
Chord color:
Chord grids: 
Font size:    
Page size: 

A C D Em
Rate #1 of 9 versions

Jango Player

Login - add to songbook

SHARE PAGE  



You need to log in to post comments