Guitar Tabs, Chords and Lyrics
Server problems seems to be fixed. Chordie has been experiencing problems with songs disappearing. These issues now seems to be fixed, but still verifying the fix. If you find anything strange, please email admin@chordie.com.


Always Like This  Bombay Bicycle Club

About time this was worked out. Sounds right, for any comments, questions or
suggestions, just post a comment or silly_timmy@hotmail.co.uk
Listen to figure out timing
(Bass Intro)
Intro riff (played LIGHTLY over bass)
00:17s
[1] [2] [3] [4] [1] [2] [3] [4]  
 
 |-9------------------------------|
 |-9---------------14-------------|
 |-10--------------14-------------|
 |-11--------------11-------------| X4
 |-11--------------13-------------|
 |-9------------------------------|

Main Riff
Guitar 1 + 2 played 4 times
00:33s
[1] [2] [3] [4]  
 
 |---------------------------------------|
 |---------------------------------------|
 |----------10p8-------------------------|
 |----13------------------11--13---------|
 |---------8------11h13------------------|
 |--12-----------------------------------|

[1] [2] [3] [4]  
 
 |---------------------------------------|
 |---------------------------------------|
 |---------10p8--------------------------|
 |-------------------10--------11--------|
 |--9----9---------8------8--------------|
 |---------------------------------------|

Verse (00:49s) (Main Riff just Guitar 1)x4
Interlude 1
Main Riff (Guitar 1)
[+]Guitar 2
1m:05s
[1] [2] [3] [4] [1] [2] [3] [4]  
 
 |-------8-------6-------8--------11-----|
 |-------9-------7-------9--------10-----|
 |-------10------8-------10-------9------|
 |-------10------8-------10-------8------|
 |-------8-------6-------8--------8------|
 |---------------------------------------|

I?m quite unsure about this part.
Bridge Guitar 2
1m:21s
[1] [2] [3] [4]  
[F#m] [F#m]  
 
 |---------------------------------------|
 |-2-2----11-11--------------------------|
 |-3-3-----9--9--------------------------| x10
 |-4-4----11-11--------------------------|
 |-4-4-----9--9--------------------------|
 |-2-2-----9--9--------------------------|

Bridge Guitar 1
1m:21s
[1] [2] [3] [4]  
[A] [A]  
 
 |---------------------------------------|
 |------6-6------6-6---------------------|
 |------7-7------7-7---------------------| X10
 |------8-8------8-8---------------------|
 |------8-8------8-8---------------------|
 |------6-6------6-6---------------------|

?I?m not Whole...?
Interlude 1 (2m:00s)
Interlude 2 Guitar 2
2m:16s
[1] [2] [3] [4] [1]  
 
 |---------------------------------------|
 |--9----------------14------------------|
 |--10---------------14------------------|
 |--11---------------11------------------| X4
 |--11---------------13------------------|
 |--9------------------------------------|

Bridge 2
2m:59s
Guitar 2 Only
[1] [2] [3] [4]  
[F#m] [F#m]  
 
 |---------------------------------------|
 |-2-2----11-11--------------------------|
 |-3-3-----9--9--------------------------|
 |-4-4----11-11--------------------------|
 |-4-4-----9--9--------------------------|
 |-2-2-----9--9--------------------------|

1 2 3 4 X12
[A] [A]  
 
 |---------------------------------------|
 |------6-6------6-6---------------------|
 |------7-7------7-7---------------------|
 |------8-8------8-8---------------------|
 |------8-8------8-8---------------------|
 |------6-6------6-6---------------------|

End on Interlude 1 played twice, then Guitar 1 variation of :
[1] [2] [3] [4]  
 
 |---------------------------------------|
 |---------------------------------------|
 |----------10p8-------------------------|
 |----13----------11p8-------------------|
 |---------8----------------8---11-------|
 |--12-----------------------------------|

[1] [2] [3] [4]  
 
 |---------------------------------------|
 |---------------------------------------|
 |---------10p8--------------------------|
 |-------------------10--------11--------|
 |--9----9---------8------8--------------|
 |---------------------------------------|


Important: The song above is NOT stored on the Chordie server. The original song is hosted at www.guitaretab.com. Chordie works as a search engine and provides on-the-fly formatting. Chordie does not index songs against artists'/composers' will. To remove this song please click here.

Text color:
Chord color:
Chord grids: 
Font size:    
Page size: 

A F#m
Rate #1 of 10 versions

Login - add to songbook

SHARE PAGE  



You need to log in to post comments