Guitar Tabs, Chords and Lyrics
Major upgrade!! After one year development the new version of Chordie is now online! Please give feedback.


All About Lovin' You  Bon Jovi

Tabbed By: Mariano Arnaiz
Anything to: marianoarnaiz@hotmail.com
Intro
 
 e-----------------------------------------------|
 B----------------13?-12h13-12------12-----------|
 G-12--------14-----------------14------12-------|
 D------12---------------------------------14/12-|
 A-----------------------------------------------|
 E-----------------------------------------------|

Verse 1
[G]Looking at the pages of my [Dsus4/F#]life
Faded [F]memories of me and you
[C]Mistakes you know I've made a few
[G]I took some shots and fell from time t[Dsus4/F#]o time
Baby,[F] you were there to pull me through[C]
[G] [Dsus4/F#] [F] [C]  
 
 e------3----------3-------------------------------|
 B-----3-3-3------3-3-3---?--1-----------1-3-1---1-|
 G----0---0------2---2------2-2-2-------0------0---| x2
 D-------------0-----------3---3------2------------|
 A---2-------------------3----------3--------------|
 E--3--------2----------1--------------------------|

Pre-chorus 1
We'v[(C)]e been around the block a time o[Em]r two
I'm [C]gonna lay it on the [D/F#]line
[Bm]Ask me how we've come this [Em]far
The [C]answer's written in my [D/F#]eyes
[Em] [C] [D/F#] [Bm]  
 
 e------0----------2-----------|
 B-----0?-----1-3--3---------3-|
 G----0------0-----2--------4--|
 D---2-------------0-------4---|
 A----------3------0------2----|
 E-0---------------2-----------|

Chorus
Every time [G]I look at you, baby, I see[Bm] something new
C Cm Fill1
That takes me higher than before and makes me want you more
I don't wanna [G]sleep tonight, dreamin's just a [Bm]waste of [Em]time
When I [F]look at what my life's been comin' [D]to
[C]I'm all about lovin' you
Fill 1
 
 e------------|
 B------------|
 G------------|
 D------------|
 A-3--5--6--8-|
 E------------|

Verse 2
I've[G] lived, I've loved, I've lost, I've paid som[Dsus4/F#]e dues, bab[F]y
We've been to hell and back again[C]
[G] [Dsus4/F#] [F] [C]  
 
 e------3----------3-------------------------------|
 B-----3-3-3------3-3-3---?--1-----------1-3-1---1-|
 G----0---0------2---2------2-2-2-------0------0---| x1
 D-------------0-----------3---3------2------------|
 A---2-------------------3----------3--------------|
 E--3--------2----------1--------------------------|

Pre-chorus 2
[(C)]Through it all you're always my best fri[Em]end
For [C]all the words I didn't [D]say
and [Bm]all the things I didn't [Em]do
Ton[C]ight I'm gonna find a [D]way
[Em] [C] [D/F#] [Bm]  
 
 e------0----------2-----------|
 B-----0?-----1-3--3---------3-|
 G----0------0-----2--------4--|
 D---2-------------0-------4---|
 A----------3------0------2----|
 E-0---------------2-----------|

Chorus (repeat the one above)
Bridge
[Am]You can take this wo[C]rld away
You're everything I am
[Am]Just read the lines upon my [C]face[D]
I'm all about lovin' you
 
 e---0-------0--------0-------0---5-|
 B---1-------1------?-1-------1---7-|
 G---2-------0--------2-------0---7-|
 D---2-------2--------2-------2---7-|
 A-0-0--2--3-3--2---0-0--2--3-3---5-|
 E----------------------------------|

Solo
 
 e--------------------------------------------------------------|
 B----------------?-------------------------13-12h13-12---12----|
 G-12----12----12-----14-----14------14----------------14----12-|
 D---(12)?-(12)--(12)---(12)----(12)---(12)---------------------|
 A--------------------------------------------------------------|
 E--------------------------------------------------------------|

Chorus (repeat the one above)
Ending
all about lovin' you
 
 e--------------------------------------3-|
 B----------------?---------------------3-|
 G--------------------------------------0-|
 D-12-14-12---12------------------------0-|
 A----------14--15----------------------2-|
 E--------------------------------------3-|


Important: The song above is NOT stored on the Chordie server. The original song is hosted at www.guitaretab.com. Chordie works as a search engine and provides on-the-fly formatting. Chordie does not index songs against artists'/composers' will. To remove this song please click here.

Text color:
Chord color:
Chord grids: 
Font size:    
Page size: 

Am Bm C D D/F# Dsus4/F# Em F G
Rate #8 of 13 versions

Login - add to songbook

SHARE PAGE  



You need to log in to post comments