Guitar Tabs, Chords and Lyrics
Major upgrade!! After one year development the new version of Chordie is now online! Please give feedback.


Surf Colorado   Bowling for Soup

 
 e----------------------------------------------------------------------------
 B----------------------------------------------------------------------------
 G-------------------99999999----------6666666666666666-7777777777777777------
 D-7777777799999-----99999999-77777777-6666666666666666-7777777777777777------
 A-7777777799999-----77777777-77777777-4444444444444444-5555555555555555------
 E-5555555577777--------------55555555----------------------------------------
 e----------------------------------------------------------------------------
 B----------------------------------------------------------------------------
 G----------------------------------------------------------------------------
 D-9999-999-99--9-------------------------------------------------------------
 A-9999-999-99--9-------------------------------------------------------------
 E-7777-777-77--7-------------------------------------------------------------

 


 


 "I saw you there..."


 

 
 e----------------------------------------------------------------------------
 B----------------------------------------------------------------------------
 G-99999999----------99999999----------99999999----------66666666-------------
 D-99999999-77777777-99999999-77777777-99999999-77777777-66666666-xx9xx9------
 A-77777777-77777777-77777777-77777777-77777777-77777777-44444444-xx9xx9------
 E----------55555555----------55555555----------55555555----------xx7xx7------
 [--------------------------------------pm-------------------------- -- ]

 


 


 "At one time..."


 

 
 e----------------------------------------------------------------------------
 B----------------------------------------------------------------------------
 G-99999999----------99999999-----------99999999---------66666666-------------
 D-99999999-77777777-99999999-77777777-99999999-77777777-66666666-99999999----
 A-77777777-77777777-77777777-77777777-77777777-77777777-44444444-99999999----
 E----------55555555----------55555555----------55555555----------77777777----
 [--------------------------------------pm----------------- - -]

 


 ease off pm


 Pre-Chorus:


 

 
 e----------------------------------------------------------------------------
 B----------------------------------------------------------------------------
 G-------9------------------9-------------------------------------------------
 D-7 / 9-9--let ring--7 / 9-9---------------77777777-99999--------------------
 A-7 / 9-7------------7 / 9-7-----0-2-0-----77777777-99999--------------------
 E-5 / 7--------------5 / 7-----4-------0---55555555-77777--------------------

 


 


 Chorus: x2


 

 
 e----------------------------------------------------------------------------
 B----------------------------------------------------------------------------
 G-99999999----------6666666666666666-7777777777777777------------------------
 D-99999999-77777777-6666666666666666-7777777777777777-9999999999999999-------
 A-77777777-77777777-4444444444444444-5555555555555555-9999999999999999-------
 E----------55555555-----------------------------------7777777777777777-------

 


 


 "There she goes..."


 

 
 e----------------------------------------------------------------------------
 B----------------------------------------------------------------------------
 G-99999999----------99999999----------99999999----------66666666-------------
 D-99999999-77777777-99999999-77777777-99999999-77777777-66666666-xx9xx9------
 A-77777777-77777777-77777777-77777777-77777777-77777777-44444444-xx9xx9------
 E----------55555555----------55555555----------55555555----------xx7xx7------
 [------------------------------------pm---------------------------- -- ]

 


 


 "How we speak..."


 

 
 e----------------------------------------------------------------------------
 B----------------------------------------------------------------------------
 G-xx9xx9--------xx9xx9--------xx9xx9--------66666666-------------------------
 D-xx9xx9-xx7xx7-xx9xx9-xx7xx7-xx9xx9-xx7xx7-66666666-99999999----------------
 A-xx7xx7-xx7xx7-xx7xx7-xx7xx7-xx7xx7-xx7xx7-44444444-99999999----------------
 E--------xx5xx5--------xx5xx5--------xx5xx5----------77777777----------------

 


 


 Pre-Chorus:


 

 
 e----------------------------------------------------------------------------
 B----------------------------------------------------------------------------
 G-------9------------------9-------------------------------------------------
 D-7 / 9-9--let ring--7 / 9-9--------------77777777-99999---------------------
 A-7 / 9-7------------7 / 9-7-----0-2-0----77777777-99999---------------------
 E-5 / 7--------------5 / 7-----4-------0--55555555-77777---------------------

 


 


 Chorus: x2


 

 
 e----------------------------------------------------------------------------
 B----------------------------------------------------------------------------
 G-99999999----------6666666666666666-7777777777777777------------------------
 D-99999999-77777777-6666666666666666-7777777777777777-9999999999999999-------
 A-77777777-77777777-4444444444444444-5555555555555555-9999999999999999-------
 E----------55555555-----------------------------------7777777777777777-------

 


 


 Bridge: x2


 

 
 e----------------------------------------------------------------------------
 B----------------------------------------------------------------------------
 G-------------------------------------------------66666666-------------------
 D-222-----7777777-22-----7777777-2222222-77777777-66666666-99999999----------
 A-222-----7777777-22-----7777777-2222222-77777777-44444444-99999999----------
 E-000-----5555555-00-----5555555-0000000-55555555----------77777777----------
 e----------------------------------------------------------------------------
 B----------------------------------------------------------------------------
 G----------------------------------------------------------------------------
 D-2-2-2---4-4-4---7-7-7---9-9-9-9-9-9-9-9------------------------------------
 A-2-2-2---4-4-4---7-7-7---9-9-9-9-9-9-9-9------------------------------------
 E-0-0-0---2-2-2---5-5-5---7-7-7-7-7-7-7-7------------------------------------

 


 


 Chorus: x2


 

 
 e----------------------------------------------------------------------------
 B----------------------------------------------------------------------------
 G-99999999----------6666666666666666-7777777777777777------------------------
 D-99999999-77777777-6666666666666666-7777777777777777-9999999999999999-------
 A-77777777-77777777-4444444444444444-5555555555555555-9999999999999999-------
 E----------55555555-----------------------------------7777777777777777-------

 


 


 Outro: x8


 

 
 e----------------------------------------------------------------------------
 B----------------------------------------------------------------------------
 G----------------------------------------------------------------------------
 D----------------------------------------------------------------------------
 A----------------------------------------------------------------------------
 E-0-0-12-0-0-12--0-0-0-12-0-0-12---------------------------------------------


Important: The song above is NOT stored on the Chordie server. The original song is hosted at www.guitaretab.com. Chordie works as a search engine and provides on-the-fly formatting. Chordie does not index songs against artists'/composers' will. To remove this song please click here.

This song is displayed as text-only. Transposing and tuning is only available for chordpro-songs.
Rate #1 of 3 versions

Jango Player

Login - add to songbook

SHARE PAGE  




You need to log in to post comments