Guitar Tabs, Chords and Lyrics
Major upgrade!! After one year development the new version of Chordie is now online! Please give feedback.


Friends o' Mine  Bowling for Soup

Friends O' Mine - Bowling For Soup - A Hangover You Don't Deserve - 2004
Chords Used:
[C] [G] [Am] [F] [D]  
 
 e|--0--|--3--|--0--|--1--|--2--|
 B|--1--|--3--|--1--|--1--|--3--|
 G|--0--|--0--|--2--|--2--|--2--|
 D|--2--|--0--|--2--|--3--|--0--|
 A|--3--|--2--|--0--|--3--|--x--|
 E|--0--|--3--|--0--|--1--|-----|

Verse:
[C]Well it was ugly but we [G]made it this far.
[Am]Some have gone but I f[C]orget who they are.
[F]Now the hangovers are wo[C]rse, but we get through them [D]fine.[G]
Chorus 1:
[C]Sleeping late, but w[G]ere not lazy.
[Am]Getting older but, w[C]ere still crazy.
[F]I'm so g[C]lad that I [D]have these [G]friends of [C]mine.
Verse:
[Am]It started out at a coffee shop in a [G]most unlikely town.
[Am]And there were casualties but we made it [G]out, anyhow.
[C]We stuck together through the [G]good and bad times.
[Am]Pulp Fiction, Blazing [C]Saddles, and Fast Times,
[F]I'm so [C]glad that I [D]have these [G]friends of [C]mine.
Guitar Solo:
Rythm Guitar:
[C] [G] [Am] [C] [F] [Em] [D] [G] [C]  
Guitar Solo:
Lead Guitar:
 
 e|-----------------------------------------------------------3--------------|
 B|-8--8--8---8-10----8~------------------------------------5----5-3---------|
 G|---------9-------9--------5-5--5-7-9-10-9-7---5---5-5--5----------5-5~----|
 D|------------------------7-----------------------7-------------------------|
 A|--------------------------------------------------------------------------|
 E|--------------------------------------------------------------------------|

Verse:
[Am]And jobs girls and obstacles did [G]all but break us down.
[Am]Night clubs and broken bands in [G]every major town.
Chorus 2:
[F]And I've got [C]your back, you've got mine.
[F]Like Johnny [C]Cash said "I walk the line."
[F]And you can [C]always [D]count on me for [G]one last [C]beer.
[C]We saw the world and the [G]world seemed smaller.
[Am]Were getting wider but not [C]getting no taller,
[F]I know we've grown up just a [C]little at a [D]time.[G]
[C]Were sleeping late but [G]we're not lazy.
[Am]Were getting older but [C]we're still crazy.
[F]I'm so [C]glad that I [D]have these [G]friends of [C]mine.
Outro:
[C]So glad that I [D]have these [G]friends of mine,
[C]So glad that I [D]have these [G]friends of [C]mine.
and there it is! Really good song, man this song is so damn great...
Oh well, please rate, post comments, and enjoy playing! :)

Important: The song above is NOT stored on the Chordie server. The original song is hosted at www.guitaretab.com. Chordie works as a search engine and provides on-the-fly formatting. Chordie does not index songs against artists'/composers' will. To remove this song please click here.

Text color:
Chord color:
Chord grids: 
Font size:    
Page size: 

Am C D Em F G
Rate #1 of 1 versions

Login - add to songbook

SHARE PAGE  




You need to log in to post comments