Guitar Tabs, Chords and Lyrics
Server problems seems to be fixed. Chordie has been experiencing problems with songs disappearing. These issues now seems to be fixed, but still verifying the fix. If you find anything strange, please email admin@chordie.com.


Introducing  Boys Night Out

As recorded by Boys Night Out
(From the 2005 Album TRAINWRECK)
Transcribed by Mike Bottriell, the_dc_theory@hotmail.com
Words by Connor Lovat-Fraser Music by Boys Night Out
This is ALL the parts, including the synth and everything, tabbed into guitar. I
suggest you just download the powertab program and get the other version I put up
so you can hear it, this song is kinda weird to figure out just from this...but
for everyone too lazy...heres the text version.
Gtr I (E A D G B E) - 'Acoustic 1 (right side)'
Gtr II (E A D G B E) - 'Acoustic 2 left side)'
Gtr III (E A D G B E) - 'Fast synth'
Gtr IV (E A D G B E) - 'Lead Synth'
Gtr V (E A D G B E) - 'Acoustic mono'
Gtr VI (E A D G B E) - 'Acoustic 2 mono'
Talking
Q=71
[Em7] [Em] 
[4/4] Gtr I
Q H Q Q Q Q E E E E Q Q E E
 
 |-------------||--^12--------------|--------7------|
 |-------------||o-^12--------------|--------8------|
 |-------------||--^12--------------|--------9--7-9-|
 |-------------||--^12--------------|--------9------|
 |----------7--||o-^(7)--5--9--10-9-|-5-7-7--7------|
 |-------------||-------------------|---------------|

|
| Gtr II
| H Q Q Q Q Q E E Q H E E
 
 |-------------||--^12--------------|---------------|
 |-------------||o-^12----------7---|---------------|
 |-------------||--^12------------7-|---------------|
 |-------------||--^12--------------|-7---5-----7-9-|
 |----------7--||o-^(7)--5--9-------|---------------|
 |-------------||-------------------|---------------|

E E E E E E E E Q Q Q Q
 
 |-------10-9---------|------------------|
 |--8-10------7-5-----|------------------|
 |----------------7-6-|----------3-------|
 |--------------------|--------------4---|
 |--------------------|------1-----------|
 |--------------------|--2---------------|

|
| E E E E E E E E Q Q Q Q
 
 |--------------------|------------------|
 |-10--7--------------|-----10-----------|
 |--------6-7-9-7-----|---------11-------|
 |----------------9-7-|-------------11---|
 |--------------------|-/9---------------|
 |--------------------|------------------|

1.,2.
Q Q Q Q +E E E E E E E E E E E Q. +Q H Q Q 3x
 
 |----------------|----------0---------|-----------------|------------||
 |----------------|------2-------0-----|-----2-----------|-----------o||
 |-----2---3---4--|--------2---2-------|-------0----(0)--|------------||
 |----------------|--(9)---------------|-----------------|------------||
 |----------------|--------------------|-0-1-------------|---------7-o||
 |-3--------------|----------------2-3-|-----------------|------------||

|
| Q Q Q Q +Q H E E E E E Q. +Q H Q Q 3x
 
 |----------------|--------------------|-----------------|------------||
 |----------------|--------------------|-----2-----------|-----------o||
 |----11----------|--------------------|-------0----(0)--|------------||
 |--------11--12--|-(12)---------------|-----------------|------------||
 |-7--------------|--------------------|-0-1-------------|---------7-o||
 |----------------|----------------2-3-|-----------------|------------||

Tape Side 2
3.
W H Q Q [Em7] Q Q Q E E
 
 |----------|------------|-^12--------------|
 |----------|------------|-^12--------------|
 |----------|------------|-^12--------------|
 |----------|------------|-^12--------------|
 |----------|---------7--|-^(7)--5--9--10-9-|
 |----------|------------|------------------|

|
| W H Q Q Q Q Q E E
 
 |----------|------------|-^12--------------|
 |----------|------------|-^12----------7---|
 |----------|------------|-^12------------7-|
 |----------|------------|-^12--------------|
 |----------|---------7--|-^(7)--5--9-------|
 |----------|------------|------------------|

E E Q [Em]Q E E E E E E E E E E Q Q Q Q
 
 |--------7------|-------10-9---------|------------------|
 |--------8------|--8-10------7-5-----|------------------|
 |--------9--7-9-|----------------7-6-|----------3-------|
 |--------9------|--------------------|--------------4---|
 |-5-7-7--7------|--------------------|------1-----------|
 |---------------|--------------------|--2---------------|

|
| Q H E E E E E E E E E E Q Q Q Q
 
 |---------------|--------------------|------------------|
 |---------------|-10--7--------------|-----10-----------|
 |---------------|--------6-7-9-7-----|---------11-------|
 |-7---5-----7-9-|----------------9-7-|-------------11---|
 |---------------|--------------------|-/9---------------|
 |---------------|--------------------|------------------|

Q Q Q Q +E E E E E E E E E E E Q. +Q +W
 
 |----------------|----------0---------|-----------------|--------|
 |----------------|------2-------0-----|-----2-----------|--------|
 |-----2---3---4--|--------2---2-------|-------0----(0)--|-(0)----|
 |----------------|--(9)---------------|-----------------|--------|
 |----------------|--------------------|-0-1-------------|--------|
 |-3--------------|----------------2-3-|-----------------|--------|

|
| Q Q Q Q +Q H E E E E E Q. +Q +W
 
 |----------------|--------------------|-----------------|--------|
 |----------------|--------------------|-----2-----------|--------|
 |----11----------|--------------------|-------0----(0)--|-(0)----|
 |--------11--12--|-(12)---------------|-----------------|--------|
 |-7--------------|--------------------|-0-1-------------|--------|
 |----------------|----------------2-3-|-----------------|--------|

Build Up
[Em]Q Q E E E E Q Q Q Q E E H [Dadd11/E]Q +H H +Q H.
 
 |---------------|---------------|----------2--|-(2)----2----|-(2)--2-----|
 |---------------|---------------|----------3--|-(3)----3----|-(3)--3-----|
 |---------------|------7--------|-6-7-6----0--|-(0)----0----|-(0)--0-----|
 |-------7p5-5---|---------------|----------2--|-(2)----2----|-(2)--2-----|
 |----2--------5-|--7------7--5--|-------------|-------------|------------|
 |-0-------------|---------------|-------------|-------------|------------|

|
| W +W W W W
 
 |-0-------------|-(0)-----------|-------------|-------------|------------|
 |-0-------------|-(0)-----------|-------------|-------------|------------|
 |-0-------------|-(0)-----------|-------------|-------------|------------|
 |-2-------------|-(2)-----------|-------------|-------------|------------|
 |---------------|---------------|-------------|-------------|------------|
 |---------------|---------------|-------------|-------------|------------|

H.=H
+W E S E E S E E E E E S E E Q +S Q E E E E E E E E
 
 |-(2)--------|-2-----2---2-------|---------2--(2)----|-0---0---0---0----|
 |-(3)--------|-----3-------3-----|-----3----------3--|---3---3---3---3--|
 |-(0)--------|-0-0-----0-------0-|---0---0-----------|---0---0---0---0--|
 |-(2)--------|---------------2---|-0-----------------|------------------|
 |------------|-------------------|-------------------|------------------|
 |------------|-------------------|-------------------|------------------|

Ending
Q=65 Q=71
[G5/E]Gtr V
E E E Q Q. Q S E +S S Q +E. Q S E +S S S Q +E
 
 |--------------------|-^3-------------------|-----------------------|
 |--------------------|-^3--3-5-(5)----------|-3---------------------|
 |-3--4---3--2---4----|-^0----------4-2--(2)-|-0--2-4-(4)-4-2-0--(0)-|
 |--------------------|-^2-------------------|-2---------------------|
 |-1-(1)-(1)-0--(0)---|----------------------|-----------------------|
 |--------------------|----------------------|-----------------------|

|
| Gtr VI
| W W W
 
 |--------------------|-^3-------------------|-----------------------|
 |--------------------|-^3-------------------|-3---------------------|
 |--------------------|-^0-------------------|-0---------------------|
 |--------------------|-^2-------------------|-2---------------------|
 |--------------------|----------------------|-----------------------|
 |--------------------|----------------------|-----------------------|

Q S E +S S Q +E. Q S E +S S S Q +E
 
 |-^3-------------------|-----------------------|
 |-^3--3-5-(5)----------|-3---------------------|
 |-^0----------4-2--(2)-|-0--2-4-(4)-4-2-0--(0)-|
 |-^2-------------------|-2---------------------|
 |----------------------|-----------------------|
 |----------------------|-----------------------|

|
| W W
 
 |-^3-------------------|-----------------------|
 |-^3-------------------|-3---------------------|
 |-^0-------------------|-0---------------------|
 |-^2-------------------|-2---------------------|
 |----------------------|-----------------------|
 |----------------------|-----------------------|

[G5/E] Q S E +S S Q +E. Q S E +S S S Q +E
 
 |-^3------------------------------------------|------------------------------|
 |-^3----------3-5----(5)----------------------|--3---------------------------|
 |-^0----------------------4--2---------(2)----|--0---2-4---(4)--4--2-0---(0)-|
 |-^2------------------------------------------|--2---------------------------|
 |---------------------------------------------|------------------------------|
 |---------------------------------------------|------------------------------|

| W W
 
 |-^3------------------------------------------|------------------------------|
 |-^3------------------------------------------|--3---------------------------|
 |-^0------------------------------------------|--0---------------------------|
 |-^2------------------------------------------|--2---------------------------|
 |---------------------------------------------|------------------------------|
 |---------------------------------------------|------------------------------|

|
| Gtr III
| S S S S S S S S S S S S S SE S S S S S S S S S S S S S S E
 
 |------------10-----10---12------12---|----------10------10----12------12-----|
 |-10-12-8-10---8-10---10----8-10----12|10-12-8-10---8-10----10----8-10-----12-|
 |----------------------------------9--|----------------------------------9----|
 |-------------------------------------|---------------------------------------|
 |-------------------------------------|---------------------------------------|
 |-------------------------------------|---------------------------------------|

Q S E +S S Q +E. Q S E +S S S Q +E
 
 |-^3----------------------------------|--------------------------------------|
 |-^3------3-5----(5)------------------|--3-----------------------------------|
 |-^0------------------4--2-----(2)----|--0------2-4----(4)--4--2-0-------(0)-|
 |-^2----------------------------------|--2-----------------------------------|
 |-------------------------------------|--------------------------------------|
 |-------------------------------------|--------------------------------------|

|
| W W
 
 |-^3------------------------------------------|------------------------------|
 |-^3------------------------------------------|--3---------------------------|
 |-^0------------------------------------------|--0---------------------------|
 |-^2------------------------------------------|--2---------------------------|
 |---------------------------------------------|------------------------------|
 |---------------------------------------------|------------------------------|

|
| S S S S S S S S S S S S S S E S S S S S S S S S S S S S S E
 
 |----------10-----10---12-----12------|-----------10-----10--12------12-------|
 |10-12-8-10--8-10---10---8-10------12-|10-12-8-10---8-10----10---8-10------12-|
 |-------------------------------9-----|----------------------------------9----|
 |-------------------------------------|---------------------------------------|
 |-------------------------------------|---------------------------------------|
 |-------------------------------------|---------------------------------------|

[Bm] Q +E Q. E S S Q +E Q. E S S
 
 |-------------------------|-------------------------|
 |--3---(3)--3------3--3-3-|--0---(0)--0-------0-0-0-|
 |--4---(4)--4------4--4-4-|--4---(4)--4-------4-4-4-|
 |--0---(0)--0------0--0-0-|--0---(0)--0-------0-0-0-|
 |--2---(2)--2------2--2-2-|--2---(2)--2-------2-2-2-|
 |-------------------------|-------------------------|

|
| Gtr III
| W W
 
 |-------------------------|-------------------------|
 |-------------------------|-------------------------|
 |-------------------------|-------------------------|
 |-------------------------|-------------------------|
 |-------------------------|-------------------------|
 |-------------------------|-------------------------|

|
| Gtr IV
| Q. Q. +Q Q. Q Q.
 
 |-15----------------------|-------------------------|
 |----------12----(12)-----|-15----------------------|
 |-------------------------|----------14---12--------|
 |-------------------------|-------------------------|
 |-------------------------|-------------------------|
 |-------------------------|-------------------------|

[Bm] Q +E Q. E S S Q +E Q. E S S
 
 |-------------------------|-------------------------------------------------|
 |--3---(3)--3------3--3-3-|--0----------(0)----0-------------------0----0-0-|
 |--4---(4)--4------4--4-4-|--4----------(4)----4-------------------4----4-4-|
 |--0---(0)--0------0--0-0-|--0----------(0)----0-------------------0----0-0-|
 |--2---(2)--2------2--2-2-|--2----------(2)----2-------------------2----2-2-|
 |-------------------------|-------------------------------------------------|

|
| W S S S S S S S S S S S S S S E
 
 |-------------------------|-------------10--------10----12--------12--------|
 |-------------------------|-10--12-8-10-----8-10-----10-----8--10------12---|
 |-------------------------|------------------------------------------9------|
 |-------------------------|-------------------------------------------------|
 |-------------------------|-------------------------------------------------|
 |-------------------------|-------------------------------------------------|

|
| Q. Q. +Q Q. Q Q.
 
 |-15----------------------|-------------------------------------------------|
 |----------12----(12)-----|-15----------------------------------------------|
 |-------------------------|-------------------14-----------12---------------|
 |-------------------------|-------------------------------------------------|
 |-------------------------|-------------------------------------------------|
 |-------------------------|-------------------------------------------------|

[Em] H. +E. T T H. +E. T T
 
 |--0------------------------(0)------0-0-|--0------------------(0)------0-0-|
 |--0------------------------(0)------0-0-|--0------------------(0)------0-0-|
 |--0------------------------(0)------0-0-|--0------------------(0)------0-0-|
 |--2------------------------(2)------2-2-|--2------------------(2)------2-2-|
 |--2------------------------(2)------2-2-|--2------------------(2)------2-2-|
 |--0------------------------(0)------0-0-|--0------------------(0)------0-0-|

|
| S S S S S S S S S S S S S S E S S S S S S S S S S S S S S E
 
 |----------10-----10---12-----12------|-----------10-----10--12------12-------|
 |10-12-8-10--8-10---10---8-10------12-|10-12-8-10---8-10----10---8-10------12-|
 |-------------------------------9-----|----------------------------------9----|
 |-------------------------------------|---------------------------------------|
 |-------------------------------------|---------------------------------------|
 |-------------------------------------|---------------------------------------|

H. +E. T T W
 
 |--0--------------------------------(0)------0-0-|-0----*|
 |--0--------------------------------(0)------0-0-|-0----*|
 |--0--------------------------------(0)------0-0-|-0----*|
 |--2--------------------------------(2)------2-2-|-2----*|
 |--2--------------------------------(2)------2-2-|-2----*|
 |--0--------------------------------(0)------0-0-|-0----*|

|
| >
| S S S S S S S S S S S S S S E W
 
 |-------------10------10----12------12-----------|------*|
 |-10--12-8-10----8-10----10----8-10-------12-----|------*|
 |---------------------------------------9--------|------*|
 |------------------------------------------------|------*|
 |------------------------------------------------|------*|
 |------------------------------------------------|------*|
 --------------------------------------------------------------------------------

Duration Legend
 
 ---------------
 W - whole; H - half; Q - quarter; E - 8th; S - 16th; T - 32nd; X - 64th; a - acciaccatura

+ - note tied to previous; . - note dotted; .. - note double dotted
Uncapitalized letters represent notes that are staccato (1/2 duration)
Irregular groupings are notated above the duration line
Duration letters will always appear directly above the note/fret number it represents the
duration for. Duration letters with no fret number below them represent rests. Multi-
bar rests are notated in the form Wxn, where n is the number of bars to rest for. Low
melody durations appear below the staff
Tablature Legend
 
 ----------------

h - hammer-on
p - pull-off
b - bend
pb - pre-bend
r - bend release (if no number after the r, then release immediately)
/ - slide into or out of (from/to "nowhere")
s - legato slide
S - shift slide
- natural harmonic
(n) - artificial harmonic
n(n) - tapped harmonic
~ - vibrato
tr - trill
T - tap
TP - trem. picking
PM - palm muting
n/ - tremolo bar dip; n = amount to dip
n - tremolo bar down
n/ - tremolo bar up
/n - tremolo bar inverted dip
= - hold bend; also acts as connecting device for hammers/pulls
- volume swell (louder/softer)
x - on rhythm slash represents muted slash
o - on rhythm slash represents single note slash
Misc Legend
 
 -----------

| - bar
|| - double bar
||o - repeat start
o|| - repeat end
*| - double bar (ending)
: - bar (freetime)
$ - Segno
& - Coda
Tempo markers - = BPM(8/16=s8/s16), where s8 = swing 8ths, s16 = swing 16ths
 
 --------------------------------------------------------------------------------

** Generated using Power Tab Editor by Brad Larsen: The Official Power Tab Web Site

Important: The song above is NOT stored on the Chordie server. The original song is hosted at www.guitaretab.com. Chordie works as a search engine and provides on-the-fly formatting. Chordie does not index songs against artists'/composers' will. To remove this song please click here.

Text color:
Chord color:
Chord grids: 
Font size:    
Page size: 

Bm Em Em7 G5/E
Rate #1 of 2 versions

Jango Player

Login - add to songbook

SHARE PAGE  




You need to log in to post comments