Guitar Tabs, Chords and Lyrics
Major upgrade!! After one year development the new version of Chordie is now online! Please give feedback.


Mother Freedom  Bread

Album- Best of Bread
Artist- Bread
Song- Mother Freedom
Standard tuning
2:35 min. - very simple, easy to solo to, slight changes made to sound better w/
with distortion on fuzz amp with more bass and mid than treble- have fun.
Song order-V-(6x)
[C]V-(8x)
[C]V-(6x)- fade out
Guitar 2, Verse 1
 
 E -----------------------------------------------------------------------|
 B -----------------------------------------------------------------------|
 G ----------------3-33--5--5-5-x-x-x-x-----------------------------------|
 D -5--5-5-x-x-x-x-3-33--5--5-5-x-x-x-x-3-x-4-x---------------------------|
 A -5--5-5-x-x-x-x-1-11--3--3-3-x-x-x-x-3-x-4-x---------------------------|
 E -3--3-3-x-x-x-x----------------------1-x-2-x---------------------------|

Chorus
 
 E-------------------------------------------------------------------------|
 B-------------------------------------------------------------------------|
 G------------------3-3-3-3-3-3-3-3--5-5-5-5-5-5-5-5-----------------------|
 D-5-5-5-5-5-5-5-5--3-3-3-3-3-3-3-3--5-5-5-5-5-5-5-5--55-55-55-55-5-5------|
 A-5-5-5-5-5-5-5-5--1-1-1-1-1-1-1-1--3-3-3-3-3-3-3-3--55-55-55-55-5-5------|
 E-3-3-3-3-3-3-3-3------------------------------------33-33-33-33-3-3------|

Chorus(cont.)
 
 E------------------------------------------------------------------------|
 B------------------------------------------------------------------------|
 G-----------------------------------5-5-5-5-5-5-5-5--7-------------------|
 D-5-5-5-5-5-5-5-5--3-3-3-3-3-3-3-3--5-5-5-5-5-5-5-5--7-------------------|
 A-5-5-5-5-5-5-5-5--3-3-3-3-3-3-3-3--3-3-3-3-3-3-3-3--5-------------------|
 E-3-3-3-3-3-3-3-3--1-1-1-1-1-1-1-1---------------------------------------|


Important: The song above is NOT stored on the Chordie server. The original song is hosted at www.guitaretab.com. Chordie works as a search engine and provides on-the-fly formatting. Chordie does not index songs against artists'/composers' will. To remove this song please click here.

Text color:
Chord color:
Chord grids: 
Font size:    
Page size: 

C
Rate #2 of 4 versions

Jango Player

Login - add to songbook

SHARE PAGE  




You need to log in to post comments