Guitar Tabs, Chords and Lyrics
Major upgrade!! After one year development the new version of Chordie is now online! Please give feedback.


Sailor  The Brian Jonestown Massacre

Brian Jonestown Massacre - Sailor
Personally i think standard chords sound better for this but barre chords can be used.
 
 (E-A-D-G-B-E) Barred (E-A-D-G-B-E)
 G (3-2-0-0-3-3) G(3-5-5-4-3-3)
 F (X-3-3-2-1-1) F(1-3-3-2-1-1)
 C (X-3-2-0-1-0) C(9-11-11-10-9-9)

Dm(0-0-0-2-3-1)
Intro Phrase
[G] [F] [C]  
 
 E|----3----3---------1----1----0--3-0-3--0-0--|
 B|---------3--------------1----1--1-1-1--1-1--|
 G|------0--0-----------2--2----0--0-0-0--0-0--|
 D|---------0--------------3----2---------2-2--|
 A|----------------3------------3---------3-3--|
 E|-3~-------------1---------------------------|

Pre-verse
 
 E|-3--3--3-3-3--3-3-3--3-3-3--3-3-3--3-3-3-|
 B|-3--3--3-3-3--3-3-3--3-3-3--3-3-3--3-3-3-|
 G|-0--0--0-0-0--0-0-0--0-0-0--0-0-0--0-0-0-|
 D|-0--0--0-0-0--0-0-0--0-0-0--0-0-0--0-0-0-|
 A|-2--2--2-2-2--2-2-2--2-2-2--2-2-2--2-2-2-|
 E|-3--3--3-3-3--3-3-3--3-3-3--3-3-3--3-3-3-|

[G]Im sailing my [F]ship across your s[C]ea
[G]the stars are gu[F]iding me[C] [G]
[G]im going where no[F]one else can b[C]e[G]
across your sh[F]ining sea[C] [G]
 
 E|---------------7----------------7-10-----------10-----------7--10----------7---|
 B|8--8--8-8-8-10---8--8--8-8-8-10------8--10--8------8--10--10------8--10-10---8~|
 G|-------------------------------------------------------------------------------|
 D|-------------------------------------------------------------------------------|
 A|-------------------------------------------------------------------------------|
 E|-------------------------------------------------------------------------------|

(Play Pre-verse)
[G]I am, that is, i [F]was all i can [C]be,[G]
and that confuses[F] me.[C] [G]
Breakdown
[Dm] [F]  
 
 E----1-------1--------1-------1----|
 B------3-------3--------1-------1--|
 G--2------2---------2------2-------|
 D--0------0---------3------3-------|
 A-------------------3--------------|
 E----------------------------------|

(Play Pre-verse Again)
[G]I'm sailing my s[F]hip away to se[C]a,[G]
[F] 

Important: The song above is NOT stored on the Chordie server. The original song is hosted at www.guitaretab.com. Chordie works as a search engine and provides on-the-fly formatting. Chordie does not index songs against artists'/composers' will. To remove this song please click here.

Text color:
Chord color:
Chord grids: 
Font size:    
Page size: 

C Dm F G
Rate #1 of 6 versions

Jango Player

Login - add to songbook

SHARE PAGE  



You need to log in to post comments