Guitar Tabs, Chords and Lyrics
Server problems seems to be fixed. Chordie has been experiencing problems with songs disappearing. These issues now seems to be fixed, but still verifying the fix. If you find anything strange, please email admin@chordie.com.


Sailboats  Brooke Fraser

Intro (4x)
 
 e-3-----3-2---0----------------------------------|
 B-------------------3----------------------------|
 G---------------------4---4p2---2---2-4-----0----|
 D---------------------------------------------0--|
 A------------------------------------------------|
 E-3---3---3---3---3---3---3---3---3---3---3------|

Verse 1
 
 e------------------------------------------------|
 B---3---3---3---3-----3----3----3----------------|
 G----0---0---0---------0----0----0-0h2-2p0-------|
 D------------------------------------------0-----|
 A------------------------3-----------------------|
 E-3---3---3---3---2-0---------3------------------|

[G]We're adrift on a sailboat
[D/F#] [Em]My love [C]is the [G]sea
 
 e------------------------------------------------|
 B---3---3---3---3-----3----3----3---3------------|
 G----0---0---0---------0----0----0---0-----------|
 D------------------------------------------------|
 A------------------------3-----------------------|
 E-3---3---3---3---2-0---------3---3--------------|

[G]Yours is the horizon
[D/F#] [Em]Const[C]ant and [G]steady
Chorus 1 (pick through chords)
You [D]set my [C]limbs locked [G]hard afl[D]oat
D C D ...
Lifted my lonesome sails
The t[C]ide is o[G]ut, the [D]moon is [Em]high
C D -> to Intro (2x)
We're sailing
Verse 2
 
 e------------------------------------------------|
 B---3---3---3---3-----3----3----3----------------|
 G----0---0---0---------0----0----0-0h2-2/4/2p0---|
 D------------------------------------------------|
 A------------------------3-----------------------|
 E-3---3---3---3---2-0---------3------------------|

[G]Darling, your love is healing
[D/F#]And m[Em]akes the[C] bitter[G] sweet
 
 e------------------------------------------------|
 B---3---3---3---3-----3----3----3---3------------|
 G----0---0---0---------0----0----0---0-----------|
 D------------------------------------------------|
 A------------------------3-----------------------|
 E-3---3---3---3---2-0---------3---3--------------|

[G]Warms the winter to spring again
[D/F#]Secur[Em]es the [C]colds [G]defeat
Chorus 2 (pick through chords)
We're [D]cutting [C]anchor
[G]Casting [D]out [C]into the [G]glorious [D]deep
[C]The tide is [G]out, the [D]moon is [Em]high
C D C ...
We're sailing
Bridge (strum)
[C]Wh[Em]en we succumb to decrepi[C]tude[D]
Em C G D ... -> to Intro (2x)
Still our lose will remain in its youth
Outro
The t[C]ide is o[G]ut, the [D]moon is [Em]high
C D Em (x70077)
We're sailing
C D Em (x70077)
We're sailing
C D G -> to:
We're sailing
 
 e-3-----3-2---0----------------------------------|
 B-------------------3----------------------------|
 G---------------------4---4p2---2---2-4-----0----|
 D---------------------------------------------0--|
 A------------------------------------------------|
 E-3---3---3---3---3---3---3---3---3---3---3------|
 e-3-----3-2---0--------------------------------3-|
 B-------------------3--------------------------3-|
 G---------------------4---4p2---2---2-2---2----0-|
 D----------------------------------------------0-|
 A----------------------------------------------x-|
 E-3---3---3---3---3---3---3---3---3---3--------3-| (upstrum)


Important: The song above is NOT stored on the Chordie server. The original song is hosted at www.guitaretab.com. Chordie works as a search engine and provides on-the-fly formatting. Chordie does not index songs against artists'/composers' will. To remove this song please click here.

Text color:
Chord color:
Chord grids: 
Font size:    
Page size: 

C D D/F# Em G
Rate #3 of 4 versions

Jango Player

Login - add to songbook

SHARE PAGE  



You need to log in to post comments