Guitar Tabs, Chords and Lyrics
Major upgrade!! After one year development the new version of Chordie is now online! Please give feedback.


Streets of Fire  Bruce Springsteen

Streets of Fire - Bruce Springsteen
| A F#m | A F#m
When the [A]nigth's [F#m]quiet and you d[A]on[F#m]'t care anymore,
And your e[A]yes[F#m] are tired and there's [A]someone a[F#m]t your door
D Bm7 D Bm7 A F#m | A F#m |
And you realize you wanna let go
And the [E4]weak l[E]ies and the c[E4]old walls you e[E]mbrace
Eat at your [D]ins[Bm7]ides and le[D]ave you face[Bm7] to face with
[A]Streets of [F#m]fire, [A]streets of [F#m]fire, [A]streets of [F#m]fire, [A]streets of [F#m]fire
I'm w[A]ander[F#m]ing, a l[A]oser d[F#m]own these tracks
I'm d[A]yin[F#m]g, but g[A]irl I can'[F#m]t go back
D Bm7 D Bm7 A F#m | A F#m |
'Cause in the darkness I heard somebody call my name
And when you r[E4]eali[E]ze [E4]how they tr[E]icked you this time
And it's a[D]ll l[Bm7]ies but I'm s[D]trung out on th[Bm7]e wire
In these [A]streets of [F#m]fire, [A]streets of [F#m]fire, [A]streets of [F#m]fire, [A]streets of [F#m]fire
[A] [F#m] [A] [F#m] [A] [F#m] [A] [F#m]  
 
 ---------------|------------|-----7-7>9vvv-|----------------------5-|
 ---------------|------------|--------b-----|--------5>7vv---5>7vv---|
 --2--2-4>5vvv--|--2---------|--2-----------|--2--2---h-------h------|
 --2-----b------|--2-2>4vvv--|--2-----------|--2--2------------------|
 ---------------|-----h------|--------------|------------------------|
 ---------------|------------|--------------|------------------------|

[D] [Bm7] [D] [Bm7] [A] [F#m]  
 
 ----------------------|------------------------------------------------|--------------------------|
 12vv-10-------------10|12>10---------10-1212>10--1717>14----14-|17


Important: The song above is NOT stored on the Chordie server. The original song is hosted at www.guitaretab.com. Chordie works as a search engine and provides on-the-fly formatting. Chordie does not index songs against artists'/composers' will. To remove this song please click here.

Text color:
Chord color:
Chord grids: 
Font size:    
Page size: 

A Bm7 D E E4 F#m
Rate #3 of 4 versions

Login - add to songbook

SHARE PAGE  




You need to log in to post comments