Guitar Tabs, Chords and Lyrics
Major upgrade!! After one year development the new version of Chordie is now online! Please give feedback.


Out in the Street  Bruce Springsteen

Out In The Street - Bruce Springsteen
[A] [Bm7] [G]  
 
 -0--------|--0--------|--0--------|-----------|
 -0--0-0-2-|--0--0-0-2-|--0--0-0-2-|-0-2-0---0-|
 -2--------|--0--------|--2--------|-------2---|
 -2--------|--2--------|--2--------|-----------|
 -0--------|--0--------|--0--------|-----------|
 ----------|-----------|-----------|-----------| (repeat 1x)

[D] Put on your [E]best dress baby[A]
And darling fix your hair up [D]right
Cause there's a [E]party honey[A]
Way down beneath the neon l[D]ights
All day you've been w[E]orking that hard lin[D]e
C# F#m | E | D
Now tonight you're gonna have a good time
I work five d[E]ays a week girl[A]
Loading crates down on the d[D]ock
I take my [E]hard earned mone[A]y
And meet my girl down on the [D]block
And Monday when the fo[E]reman calls tim[D]e
I've already got [C#]Friday on my m[F#m]ind
When that whistle [Bm]blows
Girl, I'm down the s[F#m]treet
I'm home, I'm o[F#]ut of my work clothes[A]
When I'm out in the stree[D]t oh, oh, oh, oh, [A]oh
I walk the [E]way I wanna walk[A]
When I'm out in the street[D] oh, oh, oh, oh, [A]oh
I talk the w[E]ay I wanna tal[D]k
When I'm out in the stree[A]t
When I'm out in the stree[Bm]t
[A] [Bm7] [G]  
 
 -0--------|--0--------|--0--------|-----------|
 -0--0-0-2-|--0--0-0-2-|--0--0-0-2-|-0-2-0---0-|
 -2--------|--0--------|--2--------|-------2---|
 -2--------|--2--------|--2--------|-----------|
 -0--------|--0--------|--0--------|-----------|
 ----------|-----------|-----------|-----------|

[D] When I'm out [E]in the street girl[A],
Well, I never feel a[D]lone
When I'm out i[E]n the street girl[A],
In the crowd I feel at h[D]ome
The black and w[E]hites they cruise b[D]y
And they watch us from the c[C#]orner of their e[F#m]yes
But there ain't no d[Bm]oubt girl, down h[F#m]ere
We ain't gonna ta[F#]ke what they're handing ou[A]t
When I'm out in the stree[D]t oh, oh, oh, oh, [A]oh
I walk the w[E]ay I wanna walk[A]
When I'm out in the stree[D]t oh, oh, oh, oh, [A]oh
I talk the [E]way I wanna tal[D]k
A Bm D | E
Baby, out in the street I don't feel sad or blue
Baby, out in the street I'll be waiting for you[D]
[E] [A] [D] [E] [A] [D]  
 
 ---|----|--------|---------|-----|----|--------|---------|----------|
 ---|----|--------|---------|-----|----|--------|---------|----------|
 ---|----|--------|---------|-----|----|--------|---------|----------|
 ---|----|--------|---------|-----|----|--------|---------|----------|
 ---|----|--4-4-4-|-4-4-2-0-|-----|----|--4-4-4-|-4-4-2-0-|--------4-|
 ---|----|--------|---------|-2---|----|--------|---------|-2--2-2---|

[E] [D] [C#] [F#m]  
 
 ---------|----------|---------|---
 ---------|----------|---------|---
 ---------|----------|---------|---
 ---------|----------|---------|---
 -4-2-0-2-|--------4-|-4-2-0-2-|---
 ---------|-2--2-2---|---------|-2-

When the whistle [Bm]blows
Girl, I'm down the st[F#m]reet
I'm home, I'm o[F#]ut of my work clothe[A]s
When I'm out in the stre[D]et oh, oh, oh, oh, [A]oh
I walk the w[E]ay I wanna wal[A]k
When I'm out in the stre[D]et oh, oh, oh, oh, [A]oh
I talk the w[E]ay I wanna tal[A]k
When I'm out in the stree[D]t oh, oh, oh, oh, [A]oh
Pretty girls, t[E]hey're all passing b[A]y
When I'm out in the stree[D]t oh, oh, oh, oh, [A]oh
On the corner we g[E]ive them the ey[D]e
C#m Bm A | E
Baby, out in the street I just feel all right
G#m F#m | Bm | D
Meet me out in the street, little girl tonight
Meet me out in the st[E]reet, meet me out in the str[A]eet
| A | A | Bm7 G | A | A | A | Bm7
Ooooh
Meet me o[G]ut in the s[A]treet, meet me out in the stree[Bm7]t
Meet me o[G]ut in the s[A]treet, meet me out in the stree[Bm7]t
Meet me o[G]ut in the s[A]treet, meet me out in the stree[Bm7]t
Meet me o[G]ut in the s[A]treet, meet me out in the stree[Bm7]t
Meet me o[G]ut in the s[A]treet
[A] [Bm7] [G] [D] [C#] [F#m] [E] [F#] [Bm] [G#m]  
 
 -0--2---3--2--4--2---0--2--2--4--
 -2--3---0--3--6--2---0--2--3--4--
 -2--2---0--2--6--2---1--3--4--4--
 -2--4---0--0--6--4---2--4--4--6--
 -0--2---2-----4--4---2--4--2--6--
 --------3--------2---0--2-----4--


Important: The song above is NOT stored on the Chordie server. The original song is hosted at www.guitaretab.com. Chordie works as a search engine and provides on-the-fly formatting. Chordie does not index songs against artists'/composers' will. To remove this song please click here.

Text color:
Chord color:
Chord grids: 
Font size:    
Page size: 

A Bm Bm7 C# D E F# F#m G G#m
Rate #1 of 4 versions

Login - add to songbook

SHARE PAGE  




You need to log in to post comments