Guitar Tabs, Chords and Lyrics
Major upgrade!! After one year development the new version of Chordie is now online! Please give feedback.


My Father's House  Bruce Springsteen

My Father's House - Bruce Springsteen
[D] [A] [D]  
 
 -----------|----------2--------------|--------0--------------|--------2------------2------|
 -----------|------3-----3------------|----2-----2------------|----3-----3------3-----3----|
 -----------|--------2-----2----------|------2-----2----------|------2-----2------2-----2--|
 --2>4-2-0--|--2>4-----------2>4-2-0--|--2-----------2>4-2-0--|--0-------------------------|
 -----------|-------------------------|-----------------------|---------------0------------|
 -----------|-------------------------|-----------------------|----------------------------|

Last night I dreamed that [G]I was a c[D]hild
Out where the pines grow wild and t[A]all
I was tr[D]ying to [G]make it home through the f[D]orest
Before the dark[A]ness f[D]alls
I heard the wind rustling[G] through the t[D]rees
And ghostly voices rose from the fi[A]elds
I ran with my [D]heart pounding d[G]own that broken [D]path
With the devil [A]snappin' at my h[D]eels
I broke through the trees, and t[G]here in the n[D]ight
My father's house stood shining hard and br[A]ight
The branche[D]s and brambles [G]tore my clothes and scratched my a[D]rms
But I ran till I fell, s[A]haking in his a[D]rms
[D] [A] [D]  
 
 -----------|--------2-----------3------|--------0------------|--------2------------2------|
 -----------|----3-----3-----3-----2----|----2-----2----------|----3-----3------3-----3----|
 -----------|------2-----2-----2-----3--|------2-----2--------|------2-----2------2-----2--|
 --2>4-2-0--|--0-----------0------------|--2-----------4-2-0--|--0------------0------------|
 -----------|---------------------------|---------------------|----------------------------|
 -----------|---------------------------|---------------------|----------------------------|

I awoke and I imagined the hard [G]things that pulled us a[D]part
Will never again, sir, tear us from each other's he[A]arts
I got dre[D]ssed, and to that h[G]ouse I did r[D]ide
From out on the road, I could see its w[A]indows shining in l[D]ight
I walked up the steps and s[G]tood on the p[D]orch
A woman I didn't recognize came and spoke to me through a chained [A]door
I told her my stor[D]y, and w[G]ho I'd come f[D]or
She said "I'm sorry, son, but no one by that n[A]ame lives here an[D]ymore"
| D | D | G | D | D | D | D | A | A |
| D | G | D | D | D | A | D | D |
My father's house shines[G] hard and br[D]ight
It stands like a beacon calling me in the ni[A]ght
Calling and c[D]alling, [G]so cold and a[D]lone
Shining `cross this dark highway where our [A]sins lie unat[D]oned
[D] [A] [G]  
 
 --2--0--3--
 --3--2--0--
 --2--2--0--
 --0--2--0--
 -----0--2--
 --------3--


Important: The song above is NOT stored on the Chordie server. The original song is hosted at www.guitaretab.com. Chordie works as a search engine and provides on-the-fly formatting. Chordie does not index songs against artists'/composers' will. To remove this song please click here.

Text color:
Chord color:
Chord grids: 
Font size:    
Page size: 

A D G
Rate #1 of 3 versions

Login - add to songbook

SHARE PAGE  




You need to log in to post comments