Guitar Tabs, Chords and Lyrics
Major upgrade!! After one year development the new version of Chordie is now online! Please give feedback.


Candy's Room  Bruce Springsteen

Candy's Room - Bruce Springsteen
(Intro) 4bars drums
[G] [Dm7] [C] [Dm7] [C] 
[F] [C] [G]  
 
 --3--|--1-3-5-3-1--|--3--|--1-3-5-3-1--|--3--1-0--|--3--|-----|
 --3--|--1-------1--|--1--|--1-------1--|--1--1-1--|--0--|-----|
 --0--|--2-------2--|--0--|--2-------2--|--0--2-0--|--0--|-----|
 --0--|--0-------0--|--2--|--0-------0--|--2--3-2--|--0--|-----|
 --2--|-------------|--3--|-------------|--3--3-3--|--2--|-----|
 --3--|-------------|-----|-------------|-----1----|--3--|-----|

(piano accompaniment f. verse arranged f. guitar)
[G]In Candy's room there are [Dm7]pictures of her heroes on the [C]wall
[Dm7] [C] [F] [C] 
T[G]o get to Candy's room you gotta walk the darkness of Candy's hall
Strangers from the city call my baby's [Dm7]number and they bring her t[C]oys
[Dm7] [C] [F] [C] 
When I[G] come knocking she smiles pretty she knows I wanna be Candy's boy
There's a s[C]adness hidden in that pretty [F]face
A sadness all her [G]own from which no man can keep [F]Candy safe
We k[C]iss and my [Dm7]heart's pumpin' to my [F]brain
The blood rushes in my [C]veins fire rushes [G]towards the sky
We go driving [Dm]driving deep into the [F]night
I go d[F]riving deep into the ligh[C]t in Candy's eyes[G]
She says baby if you wanna be [C]wild you got a lot to[F] learn, c[G]lose your eyes
Let them melt let them fire [C]let them [F]burn
`Cause in the [G]darkness there'll be[Dm] hidden worlds that [F]shine
[F]When I hold Candy close[C] she makes these [G]hidden worlds mine
[Bm] [A] [F#m]  
 
 --------|-------------------|--------|-------------------|--------|-------------------|
 -/12vvv-|-10-12-12/14\12-10-|-/12vvv-|-10-12-12/14\12-10-|-/12vvv-|-10-12-12/14\12-10-|
 -s------|---------b--rb-----|-s------|---------b--rb-----|-s------|---------b--rb-----|
 --------|-------------------|--------|-------------------|--------|-------------------|
 --------|-------------------|--------|-------------------|--------|-------------------|
 --------|-------------------|--------|-------------------|--------|-------------------|

[G] [Bm] [A] 
[F#m]  
 
 --------|--/14--/14--|-/14vvv-/14vvv-|--14/15\14-12-|----15/17vvv-|-------|----------------7-|
 -/12vvv-|--s----s----|-s------s------|----b--rb-----|-15---b------|-12vvv-|------------------|
 -s------|------------|---------------|--------------|-------------|-------|----9vvv-7-9vvv---|
 --------|------------|---------------|--------------|-------------|-------|-/7---------------|
 --------|------------|---------------|--------------|-------------|-------|-s----------------|
 --------|------------|---------------|--------------|-------------|-------|------------------|

[G]  
 
 ------------|----------|--17/19vvvv--|
 -------p----|----------|-------------|
 -9/11\9>7---|-9/11vvvv-|-------------|
 --b-rb----9-|----------|-------------|
 ------------|----------|-------------|
 ------------|----------|-------------|

[C]She has fancy clothes and [G]diamond rings
[C]She has men who'll give her [G]anything she [Dm]wants but they don't [F]see
That [C]what she wants is [G]me, [Dm]oh and I want her [F]so
I'll [F]never let her [C]go no no [G]no
She knows that I'd [Dm]give [F]all that I got to live
C G Bm |
|
All that I want all that I live to make Candy mine
Tonig[G]ht[C]
[G] [Dm7] [C] [F] [Dm] [Bm] [A]  
[F#m]  
 
 -3--1---0--1--1---2--0--0--2--|
 -0--2---1--1--3---3--2--1--2--|
 -0--2---0--2--2---4--2--2--2--|
 -0--0---2--3--0---4--2--2--4--|
 -2------3--3------2--0--0--4--|
 -3---------1---------------2--|

b....bend
rb...release bend
/....slide up
\....slide down
>....hammer

Important: The song above is NOT stored on the Chordie server. The original song is hosted at www.guitaretab.com. Chordie works as a search engine and provides on-the-fly formatting. Chordie does not index songs against artists'/composers' will. To remove this song please click here.

Text color:
Chord color:
Chord grids: 
Font size:    
Page size: 

A Bm C Dm Dm7 F F#m G
Rate #1 of 7 versions

Jango Player

Login - add to songbook

SHARE PAGE  



You need to log in to post comments