Guitar Tabs, Chords and Lyrics
Major upgrade!! After one year development the new version of Chordie is now online! Please give feedback.


Two Faces  Bruce Springsteen

Two Faces - Bruce Springsteen
Capo 2nd fret
[G]  
 
 --|-------------|--------------|--------------|------------------|
 --|-------------|--------------|-----------h--|------------------|
 --|---4--2--0-2-|-4--4--2--2-2-|-2--4--2--0>2-|-4--2-2-0---0-0-0-|
 --|---0--0--0-0-|-0--0--0--0-0-|-0--0--0--0---|-0--0-0-0>2-2-2-2-|
 --|-------------|--------------|--------------|---------h--------|
 -2/3------------|--------------|--------------|------------------|

x x x x x x x x
[Em] [G]  
 
 ----------------|--------------|--------------|----------------|--------------|
 ----------------|--------------|--------------|----------------|--------------|
 -0--0-----0---0-|----4--2--0-2-|-4--4--2--2-0-|-2-2--4--2--0-2-|-2--4--2--2-2-|
 -2--0-0>2---2-0-|----2--2--2-2-|-2--2--2--0-0-|-0-0--0--0--0-0-|-0--0--0--0-0-|
 -------h--------|--------------|--------------|----------------|--------------|
 ----------------|-0------------|--------------|----------------|--------------|

x x x x x x
[G]I met a girl and we ran away
I swore I'd make her happy every day
And how I made her cr[Em]y
Two faces have I[G]
Sometimes mister I feel sunny and wild
Lord I love to see my baby smile
Then dark clouds come rolling b[Em]y
Two faces have I[G]
[C]One that laughs [G]one that cries
[Em]One says hello one says [G]goodbye
[C]One does things I don't [G]understand
[Em]Makes me feel like [C7]half a ma[G]n
At night I get down on my knees and pray
Our love will make that other man go away
But he'll never say goodb[Em]ye
G | G |
Two faces have I
[C] [Em] [C] [Em]  
 
 --/7-10-10vvv--/10-10-|-10-9------------|----10-7-7-|-10-9-7----|-10-9-7--------|
 --s-------------------|------10-7vvv--7-|-10--------|--------10-|--------10-/10v|
 ----------------------|-----------------|-----------|-----------|-----------s---|
 ----------------------|-----------------|-----------|-----------|---------------|
 ----------------------|-----------------|-----------|-----------|---------------|
 ----------------------|-----------------|-----------|-----------|---------------|

(notation without capo)
[G]  
 
 --------|------------------|------------|-----------|
 vvvvvv--|-10-10-10/12\10-10/14vvvv------|-----------|
 --------|---------s--s-----s------------|-----------|
 --------|------------------|------------|-----------|
 --------|------------------|------------|-----------|
 --------|------------------|------------|-----------|

[G]Last night as I kissed you 'neath the willow tree
He swore he'd take your love away from me
He said our life was just a li[C]e
And two faces have I[G]
Well go ahead and let him tr[Em]y
(Repeat verse to fade out)
[G] [Em] [C] [C7]  
 
 -3--0---0--0-
 -0--0---1--1-
 -0--0---0--3-
 -0--2---2--2-
 -2--2---3--3-
 -3--0--------

b....bend
rb...release bend
/....slide up
\....slide down
>....hammer

Important: The song above is NOT stored on the Chordie server. The original song is hosted at www.guitaretab.com. Chordie works as a search engine and provides on-the-fly formatting. Chordie does not index songs against artists'/composers' will. To remove this song please click here.

Text color:
Chord color:
Chord grids: 
Font size:    
Page size: 

C C7 Em G
Rate #1 of 6 versions

Jango Player

Login - add to songbook

SHARE PAGE  



You need to log in to post comments