Guitar Tabs, Chords and Lyrics
Server problems seems to be fixed. Chordie has been experiencing problems with songs disappearing. These issues now seems to be fixed, but still verifying the fix. If you find anything strange, please email admin@chordie.com.


Somebody  Bryan Adams

Bryan Adams ? Somebody
By Sanjeev George and Thomas George
Submitted to and submitted for www.ultimate-guitar.com only, the site for all your tab needs.
Contact us at SanjeevGeorge123@yahoo.co.in
| / slide up
| \ slide down
| b bend up
| r release bend
| p pull off
| ~ let ring
| v vibrato
| x muted string
| . play and mute with fretting hand
Intro
Guitar 1
[F] [G]  
 
 e|--1---1-1--x-x--1-1---1-1-----3---3-3--x-x--3-3---3-3-------|
 B|--1---1-1--x-x--1-1---1-1-----3---3-3--x-x--3-3---3-3-------|
 G|--2---2-2--x-x--2-2---2-2-----4---4-4--x-x--4-4---4-4-------|
 D|--3---3-3--x-x--3-3---3-3-----5---5-5--x-x--5-5---5-5-------|
 A|--3---3-3--x-x--3-3---3-3-----5---5-5--x-x--5-5---5-5-------|
 E|--1---1-1--x-x--1-1---1-1-----3---3-3--x-x--3-3---3-3-------|
 e|--1---1-1--x-x--1-1---1-1-----3---3-3--x-x--3-3---3-3-------|
 B|--1---1-1--x-x--1-1---1-1-----3---3-3--x-x--3-3---3-3-------|
 G|--2---2-2--x-x--2-2---2-2-----4---4-4--x-x--4-4---4-4-------|
 D|--3---3-3--x-x--3-3---3-3-----5---5-5--x-x--5-5---5-5-------|
 A|--3---3-3--x-x--3-3---3-3-----5---5-5--x-x--5-5---5-5-------|
 E|--1---1-1--x-x--1-1---1-1-----3---3-3--x-x--3-3---3-3-------|
 e|--1---1-1--x-x--1-1---1-1-----3---3-3--x-x--3-3---3-3----5---|
 B|--1---1-1--x-x--1-1---1-1-----3---3-3--x-x--3-3---3-3----5---|
 G|--2---2-2--x-x--2-2---2-2-----4---4-4--x-x--4-4---4-4----5---|
 D|--3---3-3--x-x--3-3---3-3-----5---5-5--x-x--5-5---5-5----7---|
 A|--3---3-3--x-x--3-3---3-3-----3---3-3--x-x--3-3---3-3----7---|
 E|--1---1-1--x-x--1-1---1-1-----3---3-3--x-x--3-3---3-3----5---|

Guitar 2
 
 e|-------------------------------------------|
 B|-------------------------------------------|
 G|---------5-7-7b9r7b9----7b9r7p5------------|
 D|-----7-7------------------------7v---------|
 A|-------------------------------------------|
 E|-------------------------------------------|

. .
 
 e|--------------------------------------------------|
 B|--------------------------------------------------|
 G|---------5-7-7b9r7-----5-7b9r7p5?7b9r7p5----------|
 D|-----7-7---------------------------------7v-------|
 A|--------------------------------------------------|
 E|--------------------------------------------------|

. .
 
 e|-----------------------------------------------|
 B|-----------------------------------------------|
 G|---------5-7-7b9r7v------7b9r7p5-------5\------|
 D|-----7-7-------------------------7v------------|
 A|-----------------------------------------------|
 E|-----------------------------------------------|
 e|-------------------------------|
 B|-------------------------------|
 G|--------------4--5--4--2-------|
 D|--5/7--7-7-x--5--5--5--3-------|
 A|--5/7--7-7-x-------------------|
 E|-------------------------------|

Verse 1
Guitar 1
[F] [G]  
 
 e|--1---1-1--x-x--1-1---1-1-----3---3-3--x-x--3-3---3-3-------|
 B|--1---1-1--x-x--1-1---1-1-----3---3-3--x-x--3-3---3-3-------|
 G|--2---2-2--x-x--2-2---2-2-----4---4-4--x-x--4-4---4-4-------|__________
 D|--3---3-3--x-x--3-3---3-3-----5---5-5--x-x--5-5---5-5-------| |
 A|--3---3-3--x-x--3-3---3-3-----5---5-5--x-x--5-5---5-5-------| |
 E|--1---1-1--x-x--1-1---1-1-----3---3-3--x-x--3-3---3-3-------| |

|
|
|
 
 e|--1---1-1--x-x--1-1---1-1-----3---3-3--x-x--3-3---3-3-------| |
 B|--1---1-1--x-x--1-1---1-1-----3---3-3--x-x--3-3---3-3-------| |
 G|--2---2-2--x-x--2-2---2-2-----4---4-4--x-x--4-4---4-4-------| |_____Play twice
 D|--3---3-3--x-x--3-3---3-3-----5---5-5--x-x--5-5---5-5-------| |
 A|--3---3-3--x-x--3-3---3-3-----5---5-5--x-x--5-5---5-5-------| |
 E|--1---1-1--x-x--1-1---1-1-----3---3-3--x-x--3-3---3-3-------| |

|
|
|
 
 e|--1---1-1--x-x--1-1---1-1-----3---3-3--x-x--3-3---3-3----5---| |
 B|--1---1-1--x-x--1-1---1-1-----3---3-3--x-x--3-3---3-3----5---| |
 G|--2---2-2--x-x--2-2---2-2-----4---4-4--x-x--4-4---4-4----5---|_________|
 D|--3---3-3--x-x--3-3---3-3-----5---5-5--x-x--5-5---5-5----7---|
 A|--3---3-3--x-x--3-3---3-3-----3---3-3--x-x--3-3---3-3----7---|
 E|--1---1-1--x-x--1-1---1-1-----3---3-3--x-x--3-3---3-3----5---| 

Chorus (I need somebody??..)
Guitar 1
[G5] [A5] [C5] [D5]  
 
 e|-------------------------|
 B|-------------------------|
 G|-------------5----7------|as many times as required
 D|---5----7----5----7------|
 A|---5----7----3----5------|
 E|---3----5----------------|

Then before 2nd verse
Guitar 1
[F] [G]  
 
 e|--1---1-1--x-x--1-1---1-1-----3---3-3--x-x--3-3---3-3-------|
 B|--1---1-1--x-x--1-1---1-1-----3---3-3--x-x--3-3---3-3-------|
 G|--2---2-2--x-x--2-2---2-2-----4---4-4--x-x--4-4---4-4-------|
 D|--3---3-3--x-x--3-3---3-3-----5---5-5--x-x--5-5---5-5-------|
 A|--3---3-3--x-x--3-3---3-3-----5---5-5--x-x--5-5---5-5-------|
 E|--1---1-1--x-x--1-1---1-1-----3---3-3--x-x--3-3---3-3-------|
 e|--1---1-1--x-x--1-1---1-1-----3---3-3--x-x--3-3---3-3-------|
 B|--1---1-1--x-x--1-1---1-1-----3---3-3--x-x--3-3---3-3-------|
 G|--2---2-2--x-x--2-2---2-2-----4---4-4--x-x--4-4---4-4-------|
 D|--3---3-3--x-x--3-3---3-3-----5---5-5--x-x--5-5---5-5-------|
 A|--3---3-3--x-x--3-3---3-3-----5---5-5--x-x--5-5---5-5-------|
 E|--1---1-1--x-x--1-1---1-1-----3---3-3--x-x--3-3---3-3-------|
 e|--1---1-1--x-x--1-1---1-1-----3---3-3--x-x--3-3---3-3----5---|
 B|--1---1-1--x-x--1-1---1-1-----3---3-3--x-x--3-3---3-3----5---|
 G|--2---2-2--x-x--2-2---2-2-----4---4-4--x-x--4-4---4-4----5---|
 D|--3---3-3--x-x--3-3---3-3-----5---5-5--x-x--5-5---5-5----7---|
 A|--3---3-3--x-x--3-3---3-3-----3---3-3--x-x--3-3---3-3----7---|
 E|--1---1-1--x-x--1-1---1-1-----3---3-3--x-x--3-3---3-3----5---|

Guitar 2
 
 e|-------------------------------------------|
 B|-------------------------------------------|
 G|---------5-7-7b9r7b9----7b9r7p5------------|
 D|-----7-7------------------------7v---------|
 A|-------------------------------------------|
 E|-------------------------------------------|

. .
 
 e|--------------------------------------------------|
 B|--------------------------------------------------|
 G|---------5-7-7b9r7-----5-7b9r7p5?7b9r7p5----------|
 D|-----7-7---------------------------------7v-------|
 A|--------------------------------------------------|
 E|--------------------------------------------------|

. .
 
 e|-----------------------------------------------|
 B|-----------------------------------------------|
 G|---------5-7-7b9r7v------7b9r7p5---------------|
 D|-----7-7-------------------------7v------------|
 A|-----------------------------------------------|
 E|-----------------------------------------------|

Verse 2(same as 1)
Chorus
Solo (guitar 2)
 
 e|--------------------------------------------------------------|
 B|------------------------------8?8b10 hold and vibrate---------|
 G|--------------------------7/9---------------------------------|
 D|------7v-----7b8r7-7v-----------------------------------------|
 A|---/8---------------------------------------------------------|
 E|--------------------------------------------------------------|
 e|---7b8-r7---------------15b17?15v-----------------------------|
 B|-----------8?8/10v-----------------15b17?r15--13--------------|
 G|-------------------------------------------------14v----------|
 D|--------------------------------------------------------------|
 A|--------------------------------------------------------------|
 E|--------------------------------------------------------------|

Rhythm for solo
[F] [G]  
 
 e|--1---1-1--x-x--1-1---1-1-----3---3-3--x-x--3-3---3-3-------|
 B|--1---1-1--x-x--1-1---1-1-----3---3-3--x-x--3-3---3-3-------|
 G|--2---2-2--x-x--2-2---2-2-----4---4-4--x-x--4-4---4-4-------|
 D|--3---3-3--x-x--3-3---3-3-----5---5-5--x-x--5-5---5-5-------|
 A|--3---3-3--x-x--3-3---3-3-----5---5-5--x-x--5-5---5-5-------|
 E|--1---1-1--x-x--1-1---1-1-----3---3-3--x-x--3-3---3-3-------|
 e|--1---1-1--x-x--1-1---1-1-----3---3-3--x-x--3-3---3-3-------|
 B|--1---1-1--x-x--1-1---1-1-----3---3-3--x-x--3-3---3-3-------|
 G|--2---2-2--x-x--2-2---2-2-----4---4-4--x-x--4-4---4-4-------|
 D|--3---3-3--x-x--3-3---3-3-----5---5-5--x-x--5-5---5-5-------|
 A|--3---3-3--x-x--3-3---3-3-----5---5-5--x-x--5-5---5-5-------|
 E|--1---1-1--x-x--1-1---1-1-----3---3-3--x-x--3-3---3-3-------|
 e|--1---1-1--x-x--1-1---1-1-----3---3-3--x-x--3-3---3-3----5---|
 B|--1---1-1--x-x--1-1---1-1-----3---3-3--x-x--3-3---3-3----5---|
 G|--2---2-2--x-x--2-2---2-2-----4---4-4--x-x--4-4---4-4----5---|
 D|--3---3-3--x-x--3-3---3-3-----5---5-5--x-x--5-5---5-5----7---|
 A|--3---3-3--x-x--3-3---3-3-----3---3-3--x-x--3-3---3-3----7---|
 E|--1---1-1--x-x--1-1---1-1-----3---3-3--x-x--3-3---3-3----5---|

Bridge (Guitar 1)
[Bb5] [C5] [D5]  
 
 e|----------------------------------------------------------|
 B|----------------------------------------------------------|
 G|---3---3---5---5--| | ------------7--------|
 D|---3---3---5---5 |play three times|----then-----7--------|
 A|---1---1---3---3 | | ------------5--------|
 E|----------------------------------------------------------|

Chorus till end
Verse 1
I bin lookin' for someone
Between the fire and the flame
We're all lookin' for somethin'
To ease the pain
Now who can you turn to
When it's all black and white
And the winners are losers
You see it every night
Chorus
I need somebody
Somebody like you
Everybody needs somebody
I need somebody
Hey what about you
Everybody needs somebody
Verse 2
When you're out on the front line
And you're watchin' them fall
It doesn't take long to realize
It ain't worth fightin' for.etc etc.
Bridge
Another night another lesson learned
It's the distance keeps us sane
But when the silence leads to sorrow
We do it all again - all again
( Chorus )

Important: The song above is NOT stored on the Chordie server. The original song is hosted at www.guitaretab.com. Chordie works as a search engine and provides on-the-fly formatting. Chordie does not index songs against artists'/composers' will. To remove this song please click here.

Text color:
Chord color:
Chord grids: 
Font size:    
Page size: 

A5 Bb5 C5 D5 F G G5
Rate #1 of 7 versions

Jango Player

Login - add to songbook

SHARE PAGE  




You need to log in to post comments