Guitar Tabs, Chords and Lyrics
Server problems seems to be fixed. Chordie has been experiencing problems with songs disappearing. These issues now seems to be fixed, but still verifying the fix. If you find anything strange, please email admin@chordie.com.


Velvet Waltz  Built to Spill

 
 -------------------------------------------------------------------------------

VELVET WALTZ ? Built to Spill
 
 -------------------------------------------------------------------------------

Tabbed by: BensonJones
Email: dontcallmebenny@hotmail.com
Tuning: Standard
INTRO: Riff A
 
 E|---------------------------------------------------------------------------|
 B|---------------------------------------------------------------------------|
 G|-----3-----3-----3-----3---------------------------------------------------|
 D|---3-----3-----3-----3-----------------------------------------------------|
 A|-1-----1-----1-----1-------------------------------------------------------|
 E|---------------------------------------------------------------------------|

Repeat this until the vocals come in
Lead Line
sl. bend
 
 e|----------6--------------------------------------------------------------|
 B|--------6---7-/--8------------------------------10----8------------------|
 G|------7-----7-/--8-------------10?--9---8--------------------------------|
 D|-----8------7-/--8-------------------------------------------------------|
 A|---8--------5-/--6-------------------------------------------------------|
 E|-6-----------------------------------------------------------------------|
 e|-----9--8------------------------------------------------------------------|
 B|-----------11---8----6-----3-----------------------------------------------|
 G|---------------------------------------------------------------------------|
 D|---------------------------------------------------------------------------|
 A|---------------------------------------------------------------------------|
 E|---------------------------------------------------------------------------|

Play this whole thing loosely 3 times
Riff A
if there's a word for you
[F]it doesn't mean anything[Eb]
[Bb]I've got some words for you[Eb]
[F]they don't offer anything[Eb]
[Bb]you cold called everybody[Eb]
[F]but you haven't sold a thing[Eb]
[Bb]a bad idea gone funny[Eb]
D C D Eb - NOT SURE ABOUT THESE CHORDS!!
a pinch felt in a dream
[G#]you thought of eve[C#]rything but som[Eb]e things can't be [C#]thought
[G#]you thought of eve[C#]rything but one[Eb] thing you forgot [C#]is you're [C]wrong
[Bb]and you better not be angry[Eb]
[F]and you better not be sad[Eb]
[Bb]you better just enjoy the luxur[Eb]y of sympathy
[F]if that's a luxury you have[Eb]
[Bb]and you know no private bad[Eb]
[F]you know that that's the meaning of [Eb]you're done
[Bb]in a world that's not so bad[Eb]
[F]in a world time was killing in the s[Eb]un
[Bb]in a world that's not so bad[Eb]
[D5]in a world time was killing in the sun[Eb5] [D5]
[Eb5]in the sun[D5]
[Eb5]in the sun[D5]
[Gmin]you took all that moment
[Bb]and you left it in the sun
[Cmin]now it's gone because you left it in the sun[Eb]
[Gmin]was a brave idea
[Bb]didn't mean no harm
[Cmin]now it's burnt because you left it in the sun[Eb]
[Gmin]was a great mistake
[Bb]but how could you have known
[Cmin]the temperature, the distance of the sun[Eb]
Repeat Gmin, Bb, Cmin, Eb to fade
For the main rhythm guitar, use a tremolo ( volume ) effect
For the outro solo, slap on a load of distortion and wah,
then go nuts in Gmin pentatonic, lots of big bends and tremelo picking
| / slide up
| \ slide down
| h hammer-on
| p pull-off
| ~ vibrato
| + harmonic
| x Mute note
===============================================================================

Important: The song above is NOT stored on the Chordie server. The original song is hosted at www.guitaretab.com. Chordie works as a search engine and provides on-the-fly formatting. Chordie does not index songs against artists'/composers' will. To remove this song please click here.

Text color:
Chord color:
Chord grids: 
Font size:    
Page size: 

Bb C C# Cmin D5 Eb Eb5 F G# Gmin
Rate #1 of 3 versions

Jango Player

Login - add to songbook

SHARE PAGE  




You need to log in to post comments