Guitar Tabs, Chords and Lyrics
Server problems seems to be fixed. Chordie has been experiencing problems with songs disappearing. These issues now seems to be fixed, but still verifying the fix. If you find anything strange, please email admin@chordie.com.


Vanilla Sky  Bury Your Dead

As recorded by Bury Your Dead
(From the 2005 Album COVER YOUR TRACKS)
Transcribed by xmurderoticax/BleedngThrough7x
Words and Music by Bury Your Dead
Gtr I (A# F A# D# G C) - 'Untitled'
Gtr II (A# F A# D# G C) - 'Untitled'
Intro
Q=200
N.C.
[4/4] Gtr I
PM| ~ PM ~ PM ~ PM PM| ~ PM ~ PM ~
E E E Q E E E +E E E Q E E E E E E Q E E E +E E E Q E E E
 
 |----------------|------------------|----------------|------------------|
 |----------------|------------------|----------------|------------------|
 |----------------|------------------|----------------|------------------|
 |----------------|------------------|----------------|------------------|
 |-----5------5---|-------5----------|-----5------5---|-------5----------|
 |-0-0---6--0---6-|-(6)-0---6--0-2s3-|-0-0---6--0---6-|-(6)-0---6--4-3-1-|

Gtr I
PM| ~ PM ~ PM ~ PM PM| ~ PM ~ PM ~
E E E Q E E E +E E E Q E E E E E E Q E E E +E E E Q E Q
 
 |----------------|------------------|----------------|------------------|
 |----------------|------------------|----------------|------------------|
 |----------------|------------------|----------------|------------------|
 |----------------|------------------|----------------|------------------|
 |-----5------5---|-------5----------|-----5------5---|-------5----0-----|
 |-0-0---6--0---6-|-(6)-0---6--0-2s3-|-0-0---6--0---6-|-(6)-0---6--0-----|

|
| Gtr II
| PM| ~ PM ~ PM ~ PM PM| ~ PM ~ PM ~
| E E E Q E E E +E E E Q E E E E E E Q E E E +E E E Q E Q
 
 |----------------|------------------|----------------|------------------|
 |----------------|------------------|----------------|------------------|
 |----------------|------------------|----------------|------------------|
 |----------------|------------------|----------------|------------------|
 |-----5------5---|-------5----------|-----5------5---|-------5----0-----|
 |-0-0---6--0---6-|-(6)-0---6--0-2s3-|-0-0---6--0---6-|-(6)-0---6--0-----|

Verse
[D5]Gtrs I[G#5], II[D#E#5] [F#5] [E#5] [F#5] [D5] [G#5] [F#E#5] [D#5] [E#5] [F#5]
E E E Q E Q E E E E E E E E E E E Q E Q E E E E E E E E
 
 |---------------|-----------------|---------------|------------------|
 |---------------|-----------------|---------------|------------------|
 |---------------|-----------------|---------------|------------------|
 |-7-7-7---------|-----------------|---7-----------|------------------|
 |-5-5-5-6--6-6--|-1s3-3s4-4s3-3s4-|---5---6--6-6--|-4s3-3s1-1s3-3s4--|
 |-------6--6-6--|-1s3-3s4-4s3-3s4-|-------6--6-6--|-4s3-3s1-1s3-3s4--|

E [D5]E E [G#5]Q E Q [D#E#5]E E E [F#5]E E [E#5]E E [F#5]E E [D5]E E [G#5]Q E Q [F#E#5]E E E [D#5]E E [E#5]E E [F#5]E
 
 |---------------|-----------------|---------------|------------------|
 |---------------|-----------------|---------------|------------------|
 |---------------|-----------------|---------------|------------------|
 |---7-----------|-----------------|---7-----------|------------------|
 |---5---6--6-6--|-1s3-3s4-4s3-3s4-|---5---6--6-6--|-4s3-3s1-1s3-3s4--|
 |-------6--6-6--|-1s3-3s4-4s3-3s4-|-------6--6-6--|-4s3-3s1-1s3-3s4--|

[D5] [G#5] [D5] [E#5] [F#5] [D5]  
 
 PM--------| PM--|

E E E E E S S S S S S E E E E E E E E
 
 ||------------------------|-----------------|
 ||o-----------------------|-----------------|
 ||------------------------|-----------------|
 ||----7-------------------|-----------------|
 ||o---5---6---0-0-0-0-0-0-|---3---4---0-0-0-|
 ||--------6---0-0-0-0-0-0-|---3---4---0-0-0-|

[D5] [G#5] [D5] [F#E#5] [D#5] [E#5] [F#5]  
 
 PM------|

E E E E E E S S S S E E E E E E E E
 
 |---------------------|--------------------||
 |---------------------|-------------------o||
 |---------------------|--------------------||
 |---7-----------------|--------------------||
 |---5---6---0-0-0-0-0-|-4s3-3s1-1s3-3s4---o||
 |-------6---0-0-0-0-0-|-4s3-3s1-1s3-3s4----||

Pre-Verse
[(D5)]Gtr I[D5]
 
 PM---------------------| PM---------------------|

H E E Q E E E E E E E E H E E Q E E E E E E E E
 
 |---------------|-----------------|---------------|------------------|
 |---------------|-----------------|---------------|------------------|
 |---------------|-----------------|---------------|------------------|
 |-12\-----------|-----------------|---------------|------------------|
 |-12\----0-0----|---0-0-0---0-0-0-|--------0-0----|---0-0-0---0-0-0--|
 |-12\----0-0----|---0-0-0---0-0-0-|--------0-0----|---0-0-0---0-0-0--|

|
| Gtr II
| PM--| PM--|
| H E E Q W H E E Q W
 
 |---------------|-----------------|---------------|------------------|
 |---------------|-----------------|---------------|------------------|
 |---------------|-----------------|---------------|------------------|
 |-12\-----------|-----------------|-12\-----------|------------------|
 |-12\----0-0----|-----------------|-12\----0-0----|------------------|
 |-12\----0-0----|-----------------|-12\----0-0----|------------------|

Verse II
D5 G#5 D#E#5 F#5 E#5 F#5 D5 G#5 N.C.
Gtrs I, II
E E E Q E Q E E E E E E E E E E E Q E Q E E E E E E E E
 
 |---------------|-----------------|---------------|------------------|
 |---------------|-----------------|---------------|------------------|
 |---------------|-----------------|---------------|------------------|
 |---7-----------|-----------------|---7-----------|------------------|
 |---5---6--6-6--|-1s3-3s4-4s3-3s4-|---5---6--6-6--|-5-------4--------|
 |-------6--6-6--|-1s3-3s4-4s3-3s4-|-------6--6-6--|---6-5s3---6-5s3--|

Breakdown
[D5]  
 
 PM---------------------| PM---------------------|

H E E Q E E E E E E E E H E E Q E E E E E E E E
 
 ||--------------|-----------------|-------------|------------------||
 ||o-------------|-----------------|-------------|-----------------o||
 ||--------------|-----------------|-------------|------------------||
 ||--0-----------|-----------------|-------------|------------------||
 ||o-0----0-0----|---0-0-0---0-0-0-|------0-0----|---0-0-0---0-0-0-o||
 ||--0----0-0----|---0-0-0---0-0-0-|------0-0----|---0-0-0---0-0-0--||
 PM-------------| PM--| PM----| PM----| PM--|

H E E Q E E E E E E E E Q E E E E Q E E E E E E E E
 
 |-------------|-----------------|---------------|------------------|
 |-------------|-----------------|---------------|------------------|
 |-------------|-----------------|---------------|------------------|
 |-0-----------|-----------------|---------------|------------------|
 |-0----0-0----|-0-0-0-0---0-0-0-|----0-0-0-0----|-0-0-0-0---0-0-0--|
 |-0----0-0----|-0-0-0-0---0-0-0-|----0-0-0-0----|-0-0-0-0---0-0-0--|
 PM-------------| PM--| PM-------------------|

H E E Q E E E E E E E E H E E Q E E E E E E E E
 
 |-------------|-----------------|-------------|------------------|
 |-------------|-----------------|-------------|------------------|
 |-------------|-----------------|-------------|------------------|
 |-0-----------|-----------------|-------------|------------------|
 |-0----0-0----|-0-0-0-0---0-0-0-|------0-0----|---0-0-0---0-0----|
 |-0----0-0----|-0-0-0-0---0-0-0-|------0-0----|---0-0-0---0-0----|

Breakdown II
D5 E#F#E#F#D5 D5 E#F#E#F#D5N.C.
PM--| PM--| PM
S S E E E E E Q S S E E E E E E E
 
 ||--------------------|---------------------|
 ||o-------------------|---------------------|
 ||--------------------|---------------------|
 ||----------------7\--|---------------------|
 ||o-0-0-0-3s4-3s4-5\--|-0-0-0-3s4-3s4-0-----|
 ||--0-0-0-3s4-3s4-----|-0-0-0-3s4-3s4-0-[3]-|

[D5]PM| [E#F#E#F#D5] [D5G#D5E#D5F#5]PM PM PM
+E S S E E E E Q E E E E E E E E
 
 |---------------------|-------------------||
 |---------------------|------------------o||
 |---------------------|-------------------||
 |-----------------7\--|-------------------||
 |-----0-0-3s4-3s4-5\--|-0-6-0-3-0-4-4-4--o||
 |-(3)-0-0-3s4-3s4-----|-0-6-0-3-0-4-4-4---||

Chorus
[D5]Gtr I
 
 PM---------------------| PM---------------------|

Q Q E E Q E E E E E E E E H E E Q E E E E E E E E
 
 |----------------|-----------------|---------------|------------------|
 |----------------|-----------------|---------------|------------------|
 |----------------|-----------------|---------------|------------------|
 |--0-------------|-----------------|---------------|------------------|
 |--0------0-0----|---0-0-0---0-0-0-|--------0-0----|---0-0-0---0-0-0--|
 |--0------0-0----|---0-0-0---0-0-0-|--------0-0----|---0-0-0---0-0-0--|

|
| Gtr II
| PM--| PM--|
| H E E Q W H E E Q W
 
 |----------------|-----------------|---------------|------------------|
 |----------------|-----------------|---------------|------------------|
 |----------------|-----------------|---------------|------------------|
 |-12\------------|-----------------|-12\-----------|------------------|
 |-12\-----0-0----|-----------------|-12\----0-0----|------------------|
 |-12\-----0-0----|-----------------|-12\----0-0----|------------------|

Verse III
[D5D5D5G#5]Gtrs I, II[D#E#5] [F#5] [E#5] [F#5] [D5D5G#5] [F#E#5] [D#5] [E#5] [F#5]
PM PM PM
E E E Q E Q E E E E E E E E E E E Q E Q E E E E E E E E
 
 ||----------------|-----------------|---------------|------------------||
 ||o---------------|-----------------|---------------|-----------------o||
 ||----------------|-----------------|---------------|------------------||
 ||----7-----------|-----------------|---7-----------|------------------||
 ||o-0-5-0-6--6-6--|-1s3-3s4-4s3-3s4-|---5-0-6--6-6--|-4s3-3s1-1s3-3s4-o||
 ||--0---0-6--6-6--|-1s3-3s4-4s3-3s4-|-----0-6--6-6--|-4s3-3s1-1s3-3s4--||

[D5D5G#5] [D5] [E#D5F#5] [D5]  
 
 PM PM--------| PM PM--|

E E E E E S S S S S S E E E E E E E E
 
 ||------------------------|-----------------|
 ||o-----------------------|-----------------|
 ||------------------------|-----------------|
 ||----7-------------------|-----------------|
 ||o---5-0-6---0-0-0-0-0-0-|---3-0-4---0-0-0-|
 ||------0-6---0-0-0-0-0-0-|---3-0-4---0-0-0-|

[D5D5G#5] [D5] [F#E#5] [D#5] [E#5] [F#5]  
 
 PM PM------|

E E E E E E S S S S E E E E E E E E
 
 |---------------------|--------------------||
 |---------------------|-------------------o||
 |---------------------|--------------------||
 |---7-----------------|--------------------||
 |---5-0-6---0-0-0-0-0-|-4s3-3s1-1s3-3s4---o||
 |-----0-6---0-0-0-0-0-|-4s3-3s1-1s3-3s4----||

Chorus
[D5]  
 
 PM---------------------| PM---------------------|

H E E Q E E E E E E E E H E E Q E E E E E E E E
 
 |---------------|-----------------|-------------|------------------|
 |---------------|-----------------|-------------|------------------|
 |---------------|-----------------|-------------|------------------|
 |-12\-----------|-----------------|-------------|------------------|
 |-12\----0-0----|---0-0-0---0-0-0-|------0-0----|---0-0-0---0-0-0--|
 |-12\----0-0----|---0-0-0---0-0-0-|------0-0----|---0-0-0---0-0-0--|

D5 G#5 D#E#5 F#5 E#5 F#5 D5 G#5 N.C.
E E E Q E Q E E E E E E E E E E E Q E Q E E E E E E E E
 
 |---------------|-----------------|---------------|------------------|
 |---------------|-----------------|---------------|------------------|
 |---------------|-----------------|---------------|------------------|
 |---7-----------|-----------------|---7-----------|------------------|
 |---5---6--6-6--|-1s3-3s4-4s3-3s4-|---5---6--6-6--|-5-------4--------|
 |-------6--6-6--|-1s3-3s4-4s3-3s4-|-------6--6-6--|---6-5s3---6-5s3--|

Breakdown
[D5]Gtr I
 
 PM---------------------| PM---------------------|

H E E Q E E E E E E E E H E E Q E E E E E E E E
 
 ||--------------|-----------------|-------------|------------------||
 ||o-------------|-----------------|-------------|-----------------o||
 ||--------------|-----------------|-------------|------------------||
 ||--0-----------|-----------------|-------------|------------------||
 ||o-0----0-0----|---0-0-0---0-0-0-|------0-0----|---0-0-0---0-0-0-o||
 ||--0----0-0----|---0-0-0---0-0-0-|------0-0----|---0-0-0---0-0-0--||

|
| Gtr II
| PM--|
| H E E Q W W W
 
 ||--------------|-----------------|-------------|------------------||
 ||o-------------|-----------------|-------------|-----------------o||
 ||--------------|-----------------|-------------|------------------||
 ||--0-----------|-----------------|-------------|------------------||
 ||o-0----0-0----|-----------------|-------------|-----------------o||
 ||--0----0-0----|-----------------|-------------|------------------||

Chorus
 
 PM-----------------------| PM-------------------------|

H E E Q E E E E E E E E H E E Q E E E E E E E E
 
 |-------------|-------------------|---------------|----------------------|
 |-------------|-------------------|---------------|----------------------|
 |-------------|-------------------|---------------|----------------------|
 |-0-----------|-------------------|---------------|----------------------|
 |-0----0-0----|-----0-0-0---0-0-0-|--------0-0----|-----0-0-0-----0-0-0--|
 |-0----0-0----|-----0-0-0---0-0-0-|--------0-0----|-----0-0-0-----0-0-0--|

|
| PM--|
| W +W +W +H +E E E E
 
 |-------------|-------------------|---------------|----------------------|
 |-------------|-------------------|---------------|----------------------|
 |-------------|-------------------|---------------|----------------------|
 |-0-----------|-(0)---------------|-(0)-----------|-(0)-------(0)--------|
 |-0-----------|-(0)---------------|-(0)-----------|-(0)-------(0)-0-0-0--|
 |-0-----------|-(0)---------------|-(0)-----------|-(0)-------(0)-0-0-0--|

N.C.
Gtrs I, II
 
 PM---------------------|

H E E Q E E E E E E E E W E E E E E E E E
 
 |-------------|-----------------|----------|------------------|
 |-------------|-----------------|----------|------------------|
 |-------------|-----------------|----------|------------------|
 |-0-----------|-----------------|----------|------------------|
 |-0----0-0----|---0-0-0---0-0-0-|----------|-5-------4--------|
 |-0----0-0----|---0-0-0---0-0-0-|----------|---6-5s3---6-5s3--|

Outro
[D5]  
 
 PM-------------| PM--| PM---------------------|

H E E Q E E E E E E E E H E E Q E E E E E E E E 3x
 
 ||--------------|-----------------|-------------|------------------||
 ||o-------------|-----------------|-------------|-----------------o||
 ||--------------|-----------------|-------------|------------------||
 ||--0-----------|-----------------|-------------|------------------||
 ||o-0----0-0----|-0-0-0-0---0-0-0-|------0-0----|---0-0-0---0-0-0-o||
 ||--0----0-0----|-0-0-0-0---0-0-0-|------0-0----|---0-0-0---0-0-0--||
 PM-------------| PM--| PM---------------|

H E E Q E E E E E E E E H E E Q E E E E E E E E
 
 |-------------|-----------------|-------------|------------------*|
 |-------------|-----------------|-------------|------------------*|
 |-------------|-----------------|-------------|------------------*|
 |-0-----------|-----------------|-------------|------------------*|
 |-0----0-0----|-0-0-0-0---0-0-0-|------0-0----|---0-0-0----------*|
 |-0----0-0----|-0-0-0-0---0-0-0-|------0-0----|---0-0-0---0-0-0--*|

Duration Legend
 
 ---------------
 W - whole; H - half; Q - quarter; E - 8th; S - 16th; T - 32nd; X - 64th; a - acciaccatura

+ - note tied to previous; . - note dotted; .. - note double dotted
Uncapitalized letters represent notes that are staccato (1/2 duration)
Irregular groupings are notated above the duration line
Duration letters will always appear directly above the note/fret number it represents the
duration for. Duration letters with no fret number below them represent rests. Multi-
bar rests are notated in the form Wxn, where n is the number of bars to rest for. Low
melody durations appear below the staff
Tablature Legend
 
 ----------------

h - hammer-on
p - pull-off
b - bend
pb - pre-bend
r - bend release (if no number after the r, then release immediately)
/\ - slide into or out of (from/to "nowhere")
s - legato slide
S - shift slide
- natural harmonic
(n) - artificial harmonic
n(n) - tapped harmonic
~ - vibrato
tr - trill
T - tap
TP - trem. picking
PM - palm muting
\n/ - tremolo bar dip; n = amount to dip
\n - tremolo bar down
n/ - tremolo bar up
/n\ - tremolo bar inverted dip
= - hold bend; also acts as connecting device for hammers/pulls
- volume swell (louder/softer)
x - on rhythm slash represents muted slash
o - on rhythm slash represents single note slash
Misc Legend
 
 -----------

| - bar
|| - double bar
||o - repeat start
o|| - repeat end
*| - double bar (ending)
: - bar (freetime)
$ - Segno
& - Coda
Tempo markers - = BPM(8/16=s8/s16), where s8 = swing 8ths, s16 = swing 16ths

Important: The song above is NOT stored on the Chordie server. The original song is hosted at www.guitaretab.com. Chordie works as a search engine and provides on-the-fly formatting. Chordie does not index songs against artists'/composers' will. To remove this song please click here.

Text color:
Chord color:
Chord grids: 
Font size:    
Page size: 

D#5 D5 F#5 G#5
Rate #1 of 2 versions

Jango Player

Login - add to songbook

SHARE PAGE  




You need to log in to post comments