Guitar Tabs, Chords and Lyrics
Server problems seems to be fixed. Chordie has been experiencing problems with songs disappearing. These issues now seems to be fixed, but still verifying the fix. If you find anything strange, please email admin@chordie.com.


Warm Machine   Bush

 
 e---0-------0-0------0----0--0--0----0--0-| INTRO/RIFF
 B-----------------------------------------|
 G--10------10\9------9----9--9/14---14\12-|
 D-----------------------------------------|
 A---8-------8\7------7----7--7/12---12\10-|
 E-----------------------------------------|

 


 Gavin -


 

 
 e-----------------------------------------|
 B-----------------------------------------|
 G-----------------------------------------|
 D--3-------3\2-------2-----2--2/7---7\5---|
 A--3-------3\2-------2-----2--2/7---7\5---|
 E--1-------1\0-------0-----0--0/5---5\3---|

 


 


 Gavin


 

 
 e-----------------------------------------| FILL
 B-----10~~~~~~8~~~~~~~~~~-----------------|
 G-----------------------------------------|
 D-----------------------------------------|
 A-----------------------------------------|
 E-----------------------------------------|

 


 


 Nigel


 

 
 e----------------0-------0-0------0---0---| VERSE
 B-----------------------------------------|
 G---------------10------10\9------9---9---|
 D-----------------------------------------|
 A----------------8-------8\7------7---7---|
 E-----------------------------------------|

 


 [-]  

 
 e---0-------0-0------0----0--0--0----0--0-|
 B-----------------------------------------|
 G--10------10\9------9----9--9/14---14\12-|
 D-----------------------------------------|
 A---8-------8\7------7----7--7/12---12\10-|
 E-----------------------------------------|
 e--------------------------------------------------| CHORUS
 B--------------------------------------------------|
 G--------------------------------------------------|
 D-7--7----X---X------3--3----X---X----5--5---X--X--|
 A-7--7----X---X------3--3----X---X----5--5---X--X--|
 E-5--5----X---X------1--1----X---X----3--3---X--X--|

 


 [-]  

 
 e--------------------------------------------------|
 B--------------------------------------------------|
 G--------------------------------------------------|
 D-3--3----7--7----X---X------3--3----X---X----5--5-|
 A-3--3----7--7----X---X------3--3----X---X----5--5-|
 E-1--1----5--5----X---X------1--1----X---X----3--3-|

 


 [-]  

 
 e--------------------------------------------------|
 B--------------------------------------------------|
 G--------------------------------------------------|
 D-3--3-----7--7----X---X------3--3----X---X--------|
 A-3--3-----7--7----X---X------3--3----X---X--------|
 E-1--1-----5--5----X---X------1--1----X---X--------|

 


 [-]  

 
 e--------------------------------------------------|
 B--------------------------------------------------|
 G--------------------------------------------------|
 D-5--5--5--5--5--5--3-2----------------------------|
 A-5--5--5--5--5--5--3-2----------------------------|
 E-3--3--3--3--3--3--1-0----------------------------|

 


 


 Nigel


 

 
 e---0-------0-0------0----0--0--0----0--0-| RIFF
 B-----------------------------------------|
 G--10------10\9------9----9--9/14---14\12-|
 D-----------------------------------------|
 A---8-------8\7------7----7--7/12---12\10-|
 E-----------------------------------------|

 


 Gavin -


 

 
 e-----------------------------------------|
 B-----------------------------------------|
 G-----------------------------------------|
 D--3-------3\2-------2-----2--2/7---7\5---|
 A--3-------3\2-------2-----2--2/7---7\5---|
 E--1-------1\0-------0-----0--0/5---5\3---|

 


 


 Gavin


 

 
 e-----------------------------------------| FILL
 B-----10~~~~~~8~~~~~~~~~~-----------------|
 G-----------------------------------------|
 D-----------------------------------------|
 A-----------------------------------------|
 E-----------------------------------------|

 


 


 Nigel


 

 
 e----------------0-------0-0------0---0---| VERSE
 B-----------------------------------------|
 G---------------10------10\9------9---9---|
 D-----------------------------------------|
 A----------------8-------8\7------7---7---|
 E-----------------------------------------|

 


 [-]  

 
 e---0-------0-0------0----0--0--0----0--0-|
 B-----------------------------------------|
 G--10------10\9------9----9--9/14---14\12-|
 D-----------------------------------------|
 A---8-------8\7------7----7--7/12---12\10-|
 E-----------------------------------------|
 e--------------------------------------------------| CHORUS 2x
 B--------------------------------------------------|
 G--------------------------------------------------|
 D-7--7----X---X------3--3----X---X----5--5---X--X--|
 A-7--7----X---X------3--3----X---X----5--5---X--X--|
 E-5--5----X---X------1--1----X---X----3--3---X--X--|

 


 [-]  

 
 e--------------------------------------------------|
 B--------------------------------------------------|
 G--------------------------------------------------|
 D-3--3----7--7----X---X------3--3----X---X----5--5-|
 A-3--3----7--7----X---X------3--3----X---X----5--5-|
 E-1--1----5--5----X---X------1--1----X---X----3--3-|

 


 [-]  

 
 e--------------------------------------------------|
 B--------------------------------------------------|
 G--------------------------------------------------|
 D-3--3-----7--7----X---X------3--3----X---X--------|
 A-3--3-----7--7----X---X------3--3----X---X--------|
 E-1--1-----5--5----X---X------1--1----X---X--------|

 


 [-]  

 
 e--------------------------------------------------|
 B--------------------------------------------------|
 G--------------------------------------------------|
 D-5--5--5--5--5--5--3-2----------------------------|
 A-5--5--5--5--5--5--3-2----------------------------|
 E-3--3--3--3--3--3--1-0----------------------------|
 e|-------------------------------------------------| INTERLUDE 2X
 B|-------------------------------------------------|
 G|---------------9-----7-----10--------------------|
 D|-------------------------------------------------|
 A|-------------------------------------------------|
 E|-------------------------------------------------|
 e|---0---0---0---0-0-0-0-0---0--0---0---0-0-0-0---- PRE-SOLO--| 2X
 B|---6--6-6--5--5--5-5-5-5--10-10-10-10-8-8-8-8---------------|
 G|------------------------------------------------------------|
 D|------------------------------------------------------------|
 A|------------------------------------------------------------|
 E|------------------------------------------------------------|
 e|-------------------------------------------------| SOLO
 B|----------17-17-17-17-17\15-15-15-15-0-----------|
 G|-------------------------------------------------|
 D|-------------------------------------------------|
 A|-------------------------------------------------|
 E|-------------------------------------------------|

 


 [-]  

 
 E|--------------------------------------------17---|
 B|-----------17-17-17/20-17-17-17\15-15-15-15------|
 G|-------------------------------------------------|
 D|-------------------------------------------------|
 A|-------------------------------------------------|
 E|-------------------------------------------------|

 


 Nigel


 

 
 e---0-------0-0------0----0--0--0----0--0-| RIFF
 B-----------------------------------------|
 G--10------10\9------9----9--9/14---14\12-|
 D-----------------------------------------|
 A---8-------8\7------7----7--7/12---12\10-|
 E-----------------------------------------|

 


 Gavin -


 

 
 e-----------------------------------------|
 B-----------------------------------------|
 G-----------------------------------------|
 D--3-------3\2-------2-----2--2/7---7\5---|
 A--3-------3\2-------2-----2--2/7---7\5---|
 E--1-------1\0-------0-----0--0/5---5\3---|
 e--------------------------------------------------| CHORUS 2x
 B--------------------------------------------------|
 G--------------------------------------------------|
 D-7--7----X---X------3--3----X---X----5--5---X--X--|
 A-7--7----X---X------3--3----X---X----5--5---X--X--|
 E-5--5----X---X------1--1----X---X----3--3---X--X--|

 


 [-]  

 
 e--------------------------------------------------|
 B--------------------------------------------------|
 G--------------------------------------------------|
 D-3--3----7--7----X---X------3--3----X---X----5--5-|
 A-3--3----7--7----X---X------3--3----X---X----5--5-|
 E-1--1----5--5----X---X------1--1----X---X----3--3-|

 


 [-]  

 
 e--------------------------------------------------|
 B--------------------------------------------------|
 G--------------------------------------------------|
 D-3--3-----7--7----X---X------3--3----X---X--------|
 A-3--3-----7--7----X---X------3--3----X---X--------|
 E-1--1-----5--5----X---X------1--1----X---X--------|

 


 [-]  

 
 e--------------------------------------------------|
 B--------------------------------------------------|
 G--------------------------------------------------|
 D-5--5--5--5--5--5--3-2----------------------------|
 A-5--5--5--5--5--5--3-2----------------------------|
 E-3--3--3--3--3--3--1-0----------------------------|


Important: The song above is NOT stored on the Chordie server. The original song is hosted at www.guitaretab.com. Chordie works as a search engine and provides on-the-fly formatting. Chordie does not index songs against artists'/composers' will. To remove this song please click here.

This song is displayed as text-only. Transposing and tuning is only available for chordpro-songs.
Rate #6 of 8 versions

Jango Player

Login - add to songbook

SHARE PAGE  




You need to log in to post comments