Guitar Tabs, Chords and Lyrics
Server problems seems to be fixed. Chordie has been experiencing problems with songs disappearing. These issues now seems to be fixed, but still verifying the fix. If you find anything strange, please email admin@chordie.com.


Everything Zen  Bush

Song: Everything Zen
Tabbed by: Matthew Craig (Ryeband)
 
 ------------------------------------------------------------------------

- G6 is played completely open during each Verse
- Chords in each Chorus are Barred
- During Chorus when 'G' is played, continuously hammer-on the index finger
 
 ------------------------------------------------------------------------

(Riff 1: Played during whole Intro and after each Chorus)
 
 e|----7---7---7---7--7-/12-12-12-10-10-10--\7-10-5-9-4-8-3\--|
 B|--8---8---8---8--------------------------------------------|
 G|-----------------------------------------------------------|
 D|-----------------------------------------------------------|
 A|-----------------------------------------------------------|
 E|-----------------------------------------------------------|

(Riff 2: Played after "asshole brother" in Verse 1)
e|--8\\\--|
 
 B|--------|
 G|--------|
 D|--------|
 A|--------|
 E|--------|

(Riff 3: Played after "fake with your saint" in Verse 2)
e|--8///--|
 
 B|--------|
 G|--------|
 D|--------|
 A|--------|
 E|--------|

(Intro:)
[Em] [G6] [Em] [D] [C]  
[Em] [G6] [Em] [D] [C]  
[Em] [G6] [Em] [D] [C]  
[Em] [G6] [Em] [D] [C]  
(Verse 1:)
There must be something we can eat
Maybe find another lover
Should I fly to los angeles
Find my asshole brother
[Em]Min[G6]nie[Em] mouse has grown [D]up a [C]cow
[Em]Dav[G6]es [Em]on sale [G]again[F#m]
[Em]We [G6]kis[Em]sy kiss in the [D]rear view[C]
[Em]We'[G6]re [Em]so bored, you're to [G]blame[F#m]
(Chorus:)
[Am]Try to [F]see it once my [G]way
Everything [Am]zen, Everything [F]zen, I dont [G]think so
Everything [Am]zen, Everything [F]zen, I dont [G]think so
(Verse 2:)
Raindogs howl for the century
A million dollars a steak
As you search for your demi-god
And you fake with a saint
[Em]The[G6]res[Em] no sex in your [D]violence[C]
[Em]The[G6]res[Em] no sex in your [G]violence[F#m]
[Em]The[G6]res[Em] no sex in your [D]violence[C]
[Em]The[G6]res[Em] no sex in your [G]violence[F#m]
(Chorus:)
[Am]Try to [F]see it once my [G]way
Everything [Am]zen, Everything [F]zen, I dont [G]think so
Everything [Am]zen, Everything [F]zen, I dont [G]think so
(Interlude:)
[D]I dont believe that [Bb]elvis is [G]dead, [C]ya
[D]I dont believe that [Bb]elvis is [G]dead
[D]I dont believe that [Bb]elvis is [G]dead, [C]ya
[D]I dont believe that [Bb]elvis is, [G]elvis is
(Solo:)
 
 E|-----------------------------------------------------------|
 B|-----------------------------------------------------------|
 G|-4--0---4/5-----3v----/4---4/5----0---0---6/7v----7v-7h9v--|
 D|-----------------------------------------------------------|
 A|-----------------------------------------------------------|
 E|-----------------------------------------------------------|
 E|-----------15---14---12------------------------------------|
 B|------------------------15----12---10----10h12v--12\11\10--|
 G|9v---9v----------------------------------------------------|
 D|-----------------------------------------------------------|
 A|-----------------------------------------------------------|
 E|-----------------------------------------------------------|
 E|----------------------------------------------------------|
 B|-10--10--10---10-10---------------------------------------|
 G|---------------------9/12v---5/////10/////15v----6/////9--|
 D|-----------------------------5/////10/////15v----6/////9--|
 A|-----------------------------5/////10/////15v----6/////9--|
 E|-----------------------------5/////10/////15v----6/////9--|
 E |----------------|
 B |----------------| 

G |--////12////15--|
D |--////12////15--|
A |--////12////15--|
E |--////12////15--|
(Pre Chorus:)
Theres no sex in your violence
Theres no sex in your violence
Theres no sex in your violence
Theres no sex in your violence
(Chorus:)
[Am]Try to [F]see it once my [G]way
Everything [Am]zen, Everything [F]zen, I dont [G]think so
[Am]Try to [F]see it once my [G]way
Everything [Am]zen, Everything [F]zen, I dont [G]think so
[Am]Zen, [F]zen
I don't [Am]think so[F]
I don't [Am]think so[F]
I don't [Am]think so[F]
I don't [Am]think so[F] [G]
...yeah...
 
 ------------------------------------------------------------------------

(LEGEND:)
/ slide up
\ slide down
h hammer-on
p pull-off
~ vibrato
+ harmonic
x Mute note

Important: The song above is NOT stored on the Chordie server. The original song is hosted at www.guitaretab.com. Chordie works as a search engine and provides on-the-fly formatting. Chordie does not index songs against artists'/composers' will. To remove this song please click here.

Text color:
Chord color:
Chord grids: 
Font size:    
Page size: 

Am Bb C D Em F F#m G G6
Rate #1 of 4 versions

Jango Player

Login - add to songbook

SHARE PAGE  



You need to log in to post comments