Guitar Tabs, Chords and Lyrics
Server problems seems to be fixed. Chordie has been experiencing problems with songs disappearing. These issues now seems to be fixed, but still verifying the fix. If you find anything strange, please email admin@chordie.com.


The Sound of Winter  Bush

The Sea of Memories
2011
"The Sound of Winter"
Em (7th fret)
[Em]Mind strong
body strong
try to find equilibrium
[C]head straight
screwed on
[Em]we're screwed up for too long
 
 E:--------------------------------------------14s12--17-15-14------|
 B:-----------------------------------------------------------------|
 G:-----------------------------------------------------------------|
 D:---5----7----5----7----5----7----5----7--------------------------|
 A:-7----5----7----5----7----5----7----5----------------------------|
 E:-----------------------------------------------------------------|

i don't want to lean on the waves
i watch the storm evaporate
[C]i think of you in stary skies
[Em]i keep you so alive
[Am] [G] [Em]  
 
 E:-------------------------------------------------|
 B:-------------------------------------------------|
 G:-------------------------------------------------|
 D:-7--7-7-7-------5--5-5-5-------2-2...------------|
 A:-7--7-7-7-------5--5-5-5-------2-2...------------|
 E:-5--5-5-5-5-7-5-3--3-3-3-3-5-3-0-0...------------|

let's walk through the fire together
disappear in the golden sands
 
 E:----------7-------------7------------------7----7----------------|
 B:----8---8---10-8---8-10---10-8---8----8-10---10---10~~-----------|
 G:-(9)--9----------9-------------9----9----------------------------|
 D:-----------------------------------------------------------------|
 A:-----------------------------------------------------------------|
 E:-----------------------------------------------------------------|

[C]it's all in yo[Am]ur face
i see [Em]you break
it's like the [D]sound of winter
[C]the bleeding l[Am]ove
the silent [Em]escape
you got to [D]hang on to yourself
[C]it's like the [Am]sound of winter
[Em]medusa smiles
judas lips
open arms
finger tips
[C]love bites and recompense
[Em]i'll be with you
until the end
[A]let's walk through the [G]fire together
[Em]disappear in the golden sands
[C]it's all in your [Am]face
i see you [Em]break
it's like the [D]sound of winter
[C]the bleeding [Am]love
the silent e[Em]scape
you got to [D]hang on to yourself
[C]it's all in your [Am]face
i see you [Em]break
it's like the [D]sound of winter
[C]the bleeding [Am]love
the silent e[Em]scape
you got to h[D]ang on to yourself
[C]it's like the [Am]sound of winter
[Em] [D] [C] [Am]  
 
 E:-10-10-10-10-8-8-8-8-7-7-7-7-7s5-5s7-b7r-5-7-s8-7-5-7-s8-7--10-8-7----7-8-7-|
 B:-------------------------------------------------------------------10-------|
 G:----------------------------------------------------------------------------|
 D:----------------------------------------------------------------------------|
 A:----------------------------------------------------------------------------|
 E:----------------------------------------------------------------------------|

hang onto yourself hang onto yourself
[Em] [D] [C] [Am]  
 
 E:------------7-----------7-7------------------7-----------7-7-------|
 B:-----8---10---------8-------10--------8---10---------8-------10----|
 G:-7s9---9------7s9-9---9-----------7s9---9------7s9-9---9-----------|
 D:-------------------------------------------------------------------|
 A:-------------------------------------------------------------------|
 E:-------------------------------------------------------------------|

[Em] [D]  
 
 E:-----------------------------------------------------------------|
 B:-----------------------------------------------------------------|
 G:-17-17-17-16-16-16-14-14-14-12-12-12-11-11-11--------------------|
 D:-----------------------------------------------------------------|
 A:-----------------------------------------------------------------|
 E:-----------------------------------------------------------------|

[C] [Am] [Em] [D]  
 
 E:----------------19----------------19-19--------------------19----------------19-19-------|
 B:-------20----22-------------20----------22--------20----22-------------20----------22----|
 G:-19s21----21-------19s21-21----21-----------19s21----21-------19s21-21----21-------------|
 D:-----------------------------------------------------------------------------------------|
 A:-----------------------------------------------------------------------------------------|
 E:-----------------------------------------------------------------------------------------|

[C] [Am]  
 
 E:------------------------------|
 B:------20-------20----20...----|
 G:-19s21~~--19s21~~--21--...----|
 D:------------------------------|
 A:------------------------------|
 E:------------------------------|

it's like the sound of winter
[C]it's all in your [Am]face
i see you [Em]break
it's like the [D]sound of winter
[C]the bleeding [Am]love
the silent [Em]escape
you got to h[D]ang on to yourself
[C]it's like the [Am]sound of winter
[Em] [D] [C] [Am]  
 
 E:----------------19----------------19-19--------------------19----------------19-19-------|
 B:-------20----22-------------20----------22--------20----22-------------20----------22----|
 G:-19s21----21-------19s21-21----21-----------19s21----21-------19s21-21----21-------------|
 D:-----------------------------------------------------------------------------------------|
 A:-----------------------------------------------------------------------------------------|
 E:-----------------------------------------------------------------------------------------|

it's like the sound of winter
[Em] [D] [C] [Am]  
 
 E:----------------19----------------19-19--------------------19----------------19-19-------|
 B:-------20----22-------------20----------22--------20----22-------------20----------22----|
 G:-19s21----21-------19s21-21----21-----------19s21----21-------19s21-21----21----------9\-|
 D:-----------------------------------------------------------------------------------------|
 A:-----------------------------------------------------------------------------------------|
 E:-----------------------------------------------------------------------------------------|

hang onto yourself hang onto yourself

Important: The song above is NOT stored on the Chordie server. The original song is hosted at www.guitaretab.com. Chordie works as a search engine and provides on-the-fly formatting. Chordie does not index songs against artists'/composers' will. To remove this song please click here.

Text color:
Chord color:
Chord grids: 
Font size:    
Page size: 

A Am C D Em G
Rate #1 of 4 versions

Login - add to songbook

SHARE PAGE  



You need to log in to post comments