Guitar Tabs, Chords and Lyrics
Major upgrade!! After one year development the new version of Chordie is now online! Please give feedback.


Meet You There  Busted

 
 ----------------------------------------------------------------------------

Meet You There - Busted
 
 ----------------------------------------------------------------------------

Tabbed by: Shiruzu
Email: letaldj@libero.it
Tuning: Standard
Well..this is my first tab so..sorry if there's any mistake :p
Capo on 1st fret
[G] [Em] [C] [D]  
 
 e|---3-----------3-----------3-----------3---------------------------------|
 B|---3-----------3-----------3-----------2---------------------------------|
 G|---0-----------0-----------0-----------3---------------------------------|
 D|---0-----------2-----------2-----------0---------------------------------|
 A|---2-----------2-----------3-----------0---------------------------------|
 E|---3-----------0-----------0-----------X---------------------------------|

Intro:
G, Em, C, D x2 (the first time let ring all the chords)
Verse
I'm [G]waiting[Em]
[Em]For the perfect [C]time to call you [D]back
[D]Cos' I remember [G]saying[Em]
[Em]Don't wanna know the [C]truth
Can't handle [D]that
And I [Em]try to (and I try to...)
Just fo[C]rget you (just forget you...)
But I [G]don't know how
D(let ring)
If only I knew
Chorus
It's [G]written all over your face
[Em]Such a painful thing to waste
[D]Tell me now [C]where do we go?
[G]Now the future's not so clear
I [Em]can't believe we've ended here
D (let ring)
Where's the world that doesn't care?
C (let ring) G
Maybe I could meet you there
Em, C, D
Verse
[G]I'm sorr[Em]y
If I slagged you [C]down, I meant no [D]harm
When I heard the [G]stories[Em]
Said things I didn't [C]mean
Should have stayed [D]calm
But [Em]sadly
You got [C]angry
And it [G]breaks my heart
D(let ring)
You're so mad at me
Chorus
It's [G]written all over your face
[Em]Such a painful thing to waste
[D]Tell me now [C]where do we go?
[G]Now the future's not so clear
I [Em]can't believe we've ended here
D (let ring)
Where's the world that doesn't care?
C (let ring) G
Maybe I could meet you there
[G]Maybe I could meet you t[C]here
[D]Maybe I could meet you t[G]here
Bridge
G, Em, D, C x2
If u want u can play this little solo..in the song it's played on piano
[G] [Em] [D] [C]  
 
 e|-------------------------------------------------------------------------|
 B|----14-13-------14-13----------------------------------------------------|
 G|---------13----------13---------12-13------------------------------------|
 D|-------------------------------------13------------13--------------------|
 A|----------------------------------------------11-13----------------------|
 E|-------------------------------------------------------------------------|

Play it twice
Chorus
It's [G]written all over your face
[Em]Such a painful thing to waste
[D]Tell me now [C]where do we go?
[G]Now the future's not so clear
I [Em]can't believe we've ended here
D (let ring)
Where's the world that doesn't care?
C (let ring) G
Maybe I could meet you there
[C]Maybe I could meet you t[G]here
[D]Maybe I should meet you t[G]here
Hope it's correct! Enjoy!

Important: The song above is NOT stored on the Chordie server. The original song is hosted at www.guitaretab.com. Chordie works as a search engine and provides on-the-fly formatting. Chordie does not index songs against artists'/composers' will. To remove this song please click here.

Text color:
Chord color:
Chord grids: 
Font size:    
Page size: 

C D Em G
Rate #1 of 6 versions

Login - add to songbook

SHARE PAGE  



You need to log in to post comments