Guitar Tabs, Chords and Lyrics
Major upgrade!! After one year development the new version of Chordie is now online! Please give feedback.


Here Without You  The Byrds

Intro:
[Em]  
 
 E----------------0-|
 B----------------0-|
 G-0--------------0-| 2x
 D----4-2--4-2-0--2-|
 A----------------2-|
 E----------------0-|

1)[Em]Day - time just [D]makes me-e feel [Em]lone - [A]ly.[Em] [A]
2)Words in my head ke - ep re-peat - ing.
1)[A]At [Em]night I can [D]on-ly drean a-bout [C]you.[C]
2)Things that you said when I was with you. And I
1)[Em]Girl you're on my [D]mind. Near-ly [C]all of the [D]time.
2)won - der is it true. Do you feel the same way too?
1)[D]It's so [C]hard be-in' [G]he-er-ere
with-out [D]yo-ou.[D2] [D4] [D] [D2]
 
 E----------------0-0-2------0-3-2--0-|
 B----------------3-----3-------------| (Go to verse 2)
 G----------------2-------------------|
 D----------------0--------0----------|
 A----------------x-------------------|
 E----------------x-------------------|

2)[D]It's so [C]hard be-in' [G]he-er-ere
with-out [D]yo-ou.[D2] [D4] [D]Be-[D2]in'
 
 E---------------0-0-2------0-3-2--0-|
 B---------------3-----3-------------|
 G---------------2-------------------|
 D---------------0--------0----------|
 A---------------x-------------------|
 E---------------x-------------------|

[C]he-er-ere, [A] with-out [Em]you[/////////////].
Chorus:
[Em]Though I [G]know it won't [Bm]last, I'll [C]see you some-[A]day.
[A]It [G]seems as though that [Bm]day will come [C]nev-er. [C]// [C]/ //
[C]But there's [G]one thing I'll [Bm]swear, though [C]you're far a-[A]way,
[A]I'll be [C]think - ing a - [A]bout you for-[F]ev-er. [F]// [F]/ //
3)[F]The [Em]streets that I [D]walk on de-[Em]press [A]me.[Em] [A]
[A]The [Em]ones that were [D]hap-py when I was with [C]you.[C]
[C]Still with [Em]all the friends I [D]know and with [C]all the things I [D]do.
[D]It's so [C]hard be-in' [G]he-er-ere
with-out [D]yo-ou. [D2] [D2] [D]Be-in'
 
 E----------------x----------x----------|
 B----------------3--3----3--3-3---3--3-|
 G----------------2-----2----2---2------|
 D----------------0----------0----------|
 A----------------x----------x----------|
 E----------------x----------x----------|

[C]he - ere, [A] with-out [B]you. [F#4] // [B4]// [F#4] / [B]/
 
 E----------------------------------------2-|
 B----------------------------------------4-|
 G----------------------------------------4-|
 D----------------------------------------4-|
 A----------------------------------------2-|
 E----------------------------------------2-|

Chord diagrams:
[Em]022000 [A]002220 [D]x00232 [C]032010 [F]x33211 [G]355433 [Bm]xx4432 [B]224442
[Bsus4(B4)]224452 [Dsus2(D2)]xx0230 [Dsus4(D4)]xx0233 [F#sus4(F#4)]224422
E,B,G,D,A

Important: The song above is NOT stored on the Chordie server. The original song is hosted at www.guitaretab.com. Chordie works as a search engine and provides on-the-fly formatting. Chordie does not index songs against artists'/composers' will. To remove this song please click here.

Text color:
Chord color:
Chord grids: 
Font size:    
Page size: 

A B B4 Bm C D D2 D4 Em F F#4 G
Rate #1 of 8 versions

Login - add to songbook

SHARE PAGE  




You need to log in to post comments