Guitar Tabs, Chords and Lyrics
Major upgrade!! After one year development the new version of Chordie is now online! Please give feedback.


Que loucura!  Cachorro Grande

Disco: As Próximas Horas Serão Muito Boas
tablatura: Mateus Pranzetti
Intro:
 
 e-------0------0-------------------------------3--------------------|
 B------0---0-----0---------3-------1-------3-----3------4-4---------|
 G-----0------0-----0-----2---------------0---0-----0----4-4---------|
 D----2-----------------0---------2----------------------4-4---------|
 A---2--------------------------3----------------------2-------------|
 E--0-----------------------------------3----------------------0-3-2-|

Intro 2x
T[Em]enho pressa pr[D]a cheg[C]ar, p[G]ressa de outro [B]lugar
e[Em]m que eu possa m[D]e sent[C]ir
D[G]entro de uma bo[A]lha que f[C]lutua por [Em]
P[Em]are de me p[D]ergunta[C]r: on[G]de eu quero che[B]gar
s[Em]into que só q[D]uero i[C]r
e[G]m cima de um tap[A]ete que flut[C]ua por a[Em]í
I[G]sso é uma loucur[A]a! Tch[C]uruchuchu[Em]chu
I[G]sso é uma loucur[A]a...Tch[C]uruchuchu[Em]chu
[C] [////] [G] [//]  
M[Em]inha razão de [D]exist[C]ir é[G] ter você sempre a[B]qui
d[Em]o meu lado e p[D]or que n[C]ão vem co[G]migo
num Dom[A]ingo voa[C]r no meu bal[Em]ão?
I[G]sso é uma loucur[A]a! Tch[C]uruchuchu[Em]chu
I[G]sso é uma loucur[A]a...Tch[C]uruchuchu[Em]chu
[C] [////] [G] [//]  
Solo:
(INTRO 2x)
 
 e------------------------------------------------------------------------------------------|
 B------------------------------------------------------------------------------------------|
 G------------7------------------------------------------------7----------------------------|
 D--------7-9---11-9-11--10-9-10--12-----------------------7-9---11-9-11--10-9-10--12-11-12-|
 A-7-9-10-----------------------------10--7--7-5-7--7-9-10----------------------------------|
 E------------------------------------------------------------------------------------------|

[(G] [A] [C////] [G//)]  
 
 e--------------------------------------------|
 B-----8--5-----------------------------------|
 G-7h9-------4s2--0-2-2s4-2-0--2s4-2-0--------|
 D--------------------------------------2s5---|
 A--------------------------------------------|
 E--------------------------------------------|

T[Em]enho pressa pr[D]a cheg[C]ar, p[G]ressa de outro [B]lugar
e[Em]m que eu possa m[D]e sent[C]ir
D[G]entro de uma bo[A]lha que f[C]lutua por [Em]
I[G]sso é uma loucur[A]a! Tch[C]uruchuchu[Em]chu
I[G]sso é uma loucur[A]a...Tch[C]uruchuchu[Em]chu
I[G]sso é uma loucur[A]a! Tch[C]uruchuchu[Em]chu
I[G]sso é uma loucur[A]a...Tch[C]uruchuchu[Em]chu
I[G]sso é uma loucur[A]aaaaaaa[C]aaaaaa![Em]!!
I[G]sso é uma loucur[A]aaaaaaa[C]aaaaaa![Em]!!
Final:
 
 e--3------0-------0-0-0-0--3-3-------------------------3----|
 B--3------2-------1-1-1-1--3-3------------------------3-----|
 G--0------2-------0-0-0-0--0-0-----------------------0------|
 D--0------2-------2-2-2-2--0-0---------0-0h2--------0-------|
 A--2------0-------3-3-3-3--2-2-----0h2-------2-0---2--------|
 E--3-----------------------3-3--------------------3---------|

Qualquer correção, dúvidas, etc mateus@loshermanos.zzn.com
Informações, mp3 da banda e outras coisas: www.cachorrogrande.tk

Important: The song above is NOT stored on the Chordie server. The original song is hosted at www.guitaretab.com. Chordie works as a search engine and provides on-the-fly formatting. Chordie does not index songs against artists'/composers' will. To remove this song please click here.

Text color:
Chord color:
Chord grids: 
Font size:    
Page size: 

A B C D Em G
Rate #2 of 3 versions

Jango Player

Login - add to songbook

SHARE PAGE  




You need to log in to post comments