Guitar Tabs, Chords and Lyrics
Server problems seems to be fixed. Chordie has been experiencing problems with songs disappearing. These issues now seems to be fixed, but still verifying the fix. If you find anything strange, please email admin@chordie.com.


I Need Your Love  Calvin Harris

Hello! Just thought I it would be interesting to write out the parts for the beat
breaks as well as all the other missing bits in this song for the sake of
challenging some more advanced players as well. Happy guitar playing, and please
feel free to make any comments at the bottom :)
************************************
| / slide up
| \ slide down
| h hammer-on
| p pull-off
| ~ vibrato
| + harmonic
| x Mute note
| b Bend
| pb Pre-bend
| br Bend release
| pbr Pre-bend release
| brb Bend release bend
************************************
[EADGBe] 
Absus2 : [x665x6]
Eb5 : [xxx8(11)(11)]
*NO CAPO*
Intro
 
 e|-----------3pb-brpbbrpb------------|

I need your [Cm]love
I need your [Ab]time
When everything's [Eb]wrong
You make it [Eb]right[(Bb)]
I feel so [Cm]high
I come [Ab]alive
I need to be [Eb]free with you [Eb]tonight
I [(Bb)]need your love
[Beat break] Cm Ab Eb (Bb) or C5 Ab5 and Eb5 power chords.
Here's the beat break in tab below. You may want to listen to the song to get the rhythm right:
"I need your love..."
 
 e|------3------1--------3------1-----------------1-3---1-------3-----1------|
 B|-4-1-------4--1--4--1------4--1-4-1-4----1-4-4------4-1-4-1------4--1-4---|
 G|--0-0--0----------1--1-1---------3-3-3--------3-3-3------0-0--0--------1--|
 D|---------3---------------3-------------3-----------3------------3---------|
 A|--------------------------------------3-----------------------------------|
 E|--------------------------------------------------------------------------|
 e|---3-----1----------------1-3-----------------|
 B|-1-----4--1-4-1-4---1-4-4---------------------|
 G|--1-1-3------3-3-3-3-----3-3-3----------------|
 D|------------------3---------------------------|
 A|----------------------------------------------|
 E|----------------------------------------------|

Repeat both phrases above twice, then add this to the end:
 
 e|-3--6-8-------|
 B|--------------|
 G|--3-----------|
 D|--------------|
 A|--------------|
 E|--------------|

[Cm]I take a deep breath every[Ab]time I pass your door
[Eb]I know you're there but I can't[Eb] see you any[(Bb)]more
[Cm]And that's the reason[Ab] you're in the dark
[Eb]I've been a stranger ever [Eb]since we fe[(Bb)]ll apart
[Cm7]And I feel so helpless [Bb]here
[Cm7]Watch my eyes are filled with [(Bb)]fear
[Cm]Tell me do you feel the[Ab] same
[Eb]Hold me in your arms again
I [(Bb)]need your [Cm]love
I need your [Ab]time
When everything's [Eb]wrong
You make it [Eb]right
I f[(Bb)]eel so [Cm]high
I come [Ab]alive
I need to be [Eb]free with you [Eb]tonight
I n[(Bb)]eed your love
[Beat break] --> Refer to tab above
Repeat chords from above
Now I'm dreaming, will ever find you now?
I walk in circles but I'll never figure out
What I mean to you, do I belong
I try to fight this but I know I'm not that strong
And I feel so helpless here
Watch my eyes are filled with fear
Tell me do you feel the same
Hold me in your arms again
I need your love
I need your time
When everything's wrong
You make it right
I feel so high
I come alive
I need to be free with you tonight
I need your love
[Beat break] --> Refer to tab above
[Absus2]  
All the years
All the times
You were never been to [Cm7]blame
(And now my eyes are open
And now my heart is closing)
And all the [Absus2]tears
All the lies
All the waste
I've been trying to make it [Cm7]change
And now my eyes are open
I need your [Ab]love
I need your time
When everything's [Eb]wrong
You make it right
I [(Bb)]feel so [Cm]high
I come [Ab]alive
I need to be [Bb]free.[(Eb5)]...
[Beat break] --> Refer to tab above
END

Important: The song above is NOT stored on the Chordie server. The original song is hosted at www.guitaretab.com. Chordie works as a search engine and provides on-the-fly formatting. Chordie does not index songs against artists'/composers' will. To remove this song please click here.

Text color:
Chord color:
Chord grids: 
Font size:    
Page size: 

Ab Bb Cm Cm7 Eb
Rate #1 of 13 versions

Login - add to songbook

SHARE PAGE  



You need to log in to post comments