Guitar Tabs, Chords and Lyrics
Major upgrade!! After one year development the new version of Chordie is now online! Please give feedback.


Black Dwarf   Candlemass

 
 [----PM----]
 E------------------------|
 B------------------------|
 G------------------------|
 D-2-----------------55---|
 A-2-------------3---33-3-|
 E-0-0-0-0-0-0-0-1-0----1-|
 [----PM----]
 E------------------------|
 B------------------------|
 G------------------------|
 D-2-----------------55---|
 A-2-------------3---33-3-|
 E-0-0-0-0-0-0-0-1-0----1-|
 [----PM----]
 E-------------------------|
 B-------------------------|
 G-------------------------|
 D-2-----------------55----|
 A-2-------------3---33-33-|
 E-0-0-0-0-0-0-0-1-0----11-|
 [----PM----]
 E---------------------------|
 B---------------------------|
 G---------------------------|
 D-2-------------------55----|
 A-2-------------33----33-33-|
 E-0-0-0-0-0-0-0-11-00----11-|

 


 


 Verse


 


 Rpt Main Riff 8 X


 


 Chorus


 ~~~~~~~~~~ ~~~


 

 
 E---------------------------------------------------|
 B---------------------------------------------------|
 G----------------------------------------------0----|
 D--------------------------------------------0------|
 A---------------7----7----7\2----2--------5---------|
 E-2----2----2-4-5----5----5\0----0----0-2-3---------| Rpt

 


 


 Rpt Main Riff 4 X


 Rpt Verse and Chorus


 


 Rpt Main Riff 8 X


 


 ~~~~~~~~~~~ ~~~~~~~~~~~ ~~~~~~~~~~~ ~~~~~~~~~~~


 

 
 E-------------------------------------------------------------------|
 B-------------------------------------------------------------------|
 G-------------------------------------------------------------------|
 D----------------2------------------------------5-5-\3-3--(3)-------|
 A-2--------------0---6--5-------\2--------------3-3-\1-1--(1)-------|
 E-0---6--5------\----------------0---6--5------\--------------------| 

 


 


 Backing for guitar solo


 


 

 
 [----------------------------PM--------------------------------]
 E-----------------------------------------------------------------|
 B-----------------------------------------------------------------|
 G-----------------------------------------------------------------|
 D-7-7-7-7-7-7-7-7-----------------5-5-5-5-5-5-5-5-----------------|
 A-5-5-5-5-5-5-5-5-6-6-6-6-6-6-6-6-3-3-3-3-3-3-3-3-4-4-4-4-4-4-4-4-|
 E-----------------4-4-4-4-4-4-4-4-----------------2-2-2-2-2-2-2-2-|

 


 Rpt 4 X


 


 

 
 E---------------------------------|
 B---------------------------------|
 G---------------------------------|
 D-4-4\3-3/9-9\5-5\4-4\3-3/9-9\5-5-|
 A-2-2\1-1/7-7\3-3\2-2\1-1/7-7\3-3-|
 E---------------------------------|
 E---------------------------------|
 B---------------------------------|
 G---------------------------------|

 


 D-444\333/999\555\444\333/999\5-\-|


 A-222\111/777\333\222\111/777\3-\-|


 

 
 E---------------------------------|

 


 


 Mid 8


 


 

 
 E-----0--------------|
 B------0--------1----|
 G-------------0---0--|
 D-2-------5----------|
 A-2-------3----------|
 E-0------------------| Rpt 4 X
 E--------------------|
 B-----0-------0------|
 G-------4-------0----|
 D-4------/5----------|
 A-2------/3----------|
 E--------------------| Rpt 4 X

 


 


 Rpt Main Riff 4 X


 Rpt Verse


 Rpt Chorus 2 X


 


 Rpt Main Riff 8 X


 Rpt Mid 8


 


 [PM] 


 

 
 E----------------------------------------------------------|
 B----------------------------------------------------------|
 G----------------------------------------------------------|
 D----------------------------------------------------------|
 A-5\4-2--------------------(2)-----------------------------|
 E-3\2-0--------------------(0)-----------------------------|Rpt 4 X

 


 


 ~~~~~~


 

 
 E-------------------------------------------------------------------|
 B-------------------------------------------------------------------|
 G-------------------------------------------------------------------|
 D-------------------------------------------------------------------|
 A-------2-------------------------(2)-------------------------------|
 E-3--2--0-------------------------(0)-------------------------------|


Important: The song above is NOT stored on the Chordie server. The original song is hosted at www.guitaretab.com. Chordie works as a search engine and provides on-the-fly formatting. Chordie does not index songs against artists'/composers' will. To remove this song please click here.

This song is displayed as text-only. Transposing and tuning is only available for chordpro-songs.
Rate #3 of 4 versions

Jango Player

Login - add to songbook

SHARE PAGE  




You need to log in to post comments