Guitar Tabs, Chords and Lyrics
Major upgrade!! After one year development the new version of Chordie is now online! Please give feedback.


Savage Butchery   Cannibal Corpse

 
 |-------------------------------------------|
 |-------------------------------------------|
 |-------------------------------------------|
 |----------6\5-5-5---------6\5-5-5-9\8-8-8--|
 |--7---4---4\3-3-3-7---4---4\3-3-3-7\6-6-6--|
 |--5---2-----------5---2--------------------|

 


 


 [1b]  

 
 |-----------------------------------------------------------|
 |-----------------------------------------------------------|
 |-----------------------------------------------------------|
 |----------6\5-5-5---------12\11-11-11-11\10-10-10-10\9-9-9-|
 |--7---4---4\3-3-3-7---4---10\*9-*9-*9-*9\*8-*8-*8-*8\7-7-7-|
 |--5---2-----------5---2------------------------------------|

 


 


 Fig. 2a


 

 
 |----------------------------------------------|
 |----------------------------------------------|
 |----------6\5-5-5-9\8-8-8-8\7-7-7-7-7\6-6-6-6-|
 |--7---4---4\3-3-3-7\6-6-6-6\5-5-5-5-5\4-4-4-4-|
 |--5---2---------------------------------------|
 |----------------------------------------------|

 


 


 [2b]  

 
 |-----------------------------------------------|
 |-----------------------------------------------|
 |----------6\5-5-5-12\11-"-"-11\10-"-"-10\9-"-"-|
 |--7---4---4\3-3-3-10\*9-----*9\*8-----*8\7-----|
 |--5---2----------------------------------------|
 |-----------------------------------------------|

 


 


 Fig. 3


 

 
 |--------------------------------------|
 |--------------------------------------|
 |--------------------------------------|
 |--------5\4-4-------5\4-4-6\5-5-7\6-6-|
 |--5---2-3\2-2-5---2-3\2-2-4\3-3-5\4-4-|
 |--3---0-------5---0-------------------|

 


 


 Fig. 4


 (first half of solo rhythm)


 

 
 |----------------------------------------------------------|
 |----------------------------------------------------------|
 |------------------6\5-5-5-----------------6\5-5-5-5\4-4-4-|
 |----------5\4-4-4-4\3-3-3---------5\4-4-4-4\3-3-3-3\2-2-2-|
 |--6---3---3\2-2-2---------6---3---3\2-2-2-----------------|
 |--4---1-------------------4---1---------------------------|


Important: The song above is NOT stored on the Chordie server. The original song is hosted at www.guitaretab.com. Chordie works as a search engine and provides on-the-fly formatting. Chordie does not index songs against artists'/composers' will. To remove this song please click here.

This song is displayed as text-only. Transposing and tuning is only available for chordpro-songs.
Rate #1 of 5 versions

Login - add to songbook

SHARE PAGE  




You need to log in to post comments