Guitar Tabs, Chords and Lyrics
Major upgrade!! After one year development the new version of Chordie is now online! Please give feedback.


La Terraza  Caramelos de Cianuro

acordes:
[Em] [Bm] [Am] [Em] [G] [D] [C] [C]  
 
 e|-0--2--0--0--3--2--0--0--------------------|
 B|-0--3--1--0--3--3--1--1--------------------|
 G|-0--4--2--0--0--2--0--0--------------------|
 D|-2--4--2--2--0--0--2--2--------------------|
 A|-2--2--0--2--2--0--3--3--------------------|
 E|-0--2--0--0--3--0--0--0--------------------|

Rec[Em]uerdo que en las noc[Bm]hes te solia silbar
Des[Am]de la calle a la ven[Em]tana
[G]te escapabas bordean[D]do el oscur[C]o jardín
Qui[Em]én sabe cuantas luna[Bm]s contemplamos pasar
Ech[Am]ados en la terraza[Em]
Desd[G]e mi casa el cielo s[D]e sigue vie[C]ndo casi igual
coro:
acordes:
[C] [D] [Em] [Em] [G] [D] [C] [C]  
 
 e|-0--2--0--0-- e-3--2--0--0--|
 B|-1--3--0--0-- B-3--3--1--1--|
 G|-0--2--0--0-- x2 G-0--2--0--0--|
 D|-2--0--2--2-- D-0--0--2--2--|
 A|-3--0--2--2-- A-2--0--3--3--|
 E|-0--0--0--0-- E-3--0--0--2--|

Y[C]o era tu m[D]ala influ[Em]encia
T[C]ú fuistes [D]mi prince[Em]sa
S[G]iempre son frágiles [D]las horas m[C]as perfectas
Q[C]uizas me i[D]nvada la [Em]nostalgia
P[C]or un encu[D]entro imp[Em]osible
D[G]e las memorias sólo [D]atesoramos [C]lo sublime
verso#2:
Aho[Em]ra todo el mundo me [Bm]pregunta por ti
Y y[Am]o no quiero explicar[Em]les
No [G]tengo ánimos de pare[D]cer amable[C]
Qui[Em]én sabe cuantas luna[Bm]s contemplamos pasar
Ech[Am]ados en la terraza[Em]
Des[G]de mi casa el cielo [D]se sigue vi[C]endo casi igual
coro#2:
Y[C]o era tu m[D]ala influ[Em]encia
T[C]ú fuistes [D]mi prince[Em]sa
S[G]iempre son frágiles [D]las horas m[C]as perfectas
Q[C]uizas me i[D]nvada la [Em]nostalgia
P[C]or un encu[D]entro imp[Em]osible
D[G]e las memorias sólo [D]atesoramos [C]lo sublime
final:
acordes:
[G] [F#m] [Em] [D] [C] [D#]  
 
 e|-3--2--0--2--0--2--------------------------|
 B|-3--2--0--3--1--3--------------------------|
 G|-0--2--0--2--0--2--------------------------|
 D|-0--4--2--0--2--x--------------------------|
 A|-2--4--2--0--3--x--------------------------|
 E|-3--2--0--0--0--x--------------------------|

H[G]a pasado el tiempo [F#m]esto es lo que siento
D[Em]e lo que te digo DIO[D]S es mi testigo
Q[C]ue con cada noche, que cada mañana
Q[D#]ue todos los minutos, que todas las semanas
N[G]o dejo de pensar en[F#m] lo que dijistes
N[Em]o dejo de aferrarme [D]a lo que me distes
Y[C] no cambia lo que siento, la distancia es como el viento,
N[D#]o es vivir en el pasado quererte a mi lado
E[G]s tan solo tratar d[F#m]e ser sincero conmigo mismo
E[Em]s tan solo tratar de[D] llenar este vacío
Q[C]ue me carcome las entrañas
Y[D#] no me deja vivir si no estas junto a mí
Fin.....
Tremenda cancion... y muy facil de tocar
y bueno vzla rules xD jajaja viva venezuela
cualkier reclamo, correccion, insulto y/o mentada de madre
escribir a alvaritor0x@hotmail.com :) tengo muchos tabs
de caramelos q no estan en paginas con gusto los pasare... =)
Tabs by alvarito =)

Important: The song above is NOT stored on the Chordie server. The original song is hosted at www.guitaretab.com. Chordie works as a search engine and provides on-the-fly formatting. Chordie does not index songs against artists'/composers' will. To remove this song please click here.

Text color:
Chord color:
Chord grids: 
Font size:    
Page size: 

Am Bm C D D# Em F#m G
Rate #1 of 2 versions

Jango Player

Login - add to songbook

SHARE PAGE  



You need to log in to post comments