Guitar Tabs, Chords and Lyrics
Server problems seems to be fixed. Chordie has been experiencing problems with songs disappearing. These issues now seems to be fixed, but still verifying the fix. If you find anything strange, please email admin@chordie.com.


Veneno  Caramelos de Cianuro

sta rolita la vdd sta bastante llegadora kuando sabs lo q es q yo q q la mayoria de
sabms el sentimiento q aki c plasma ya sea de una u otra forma kiza las kosas en la vida no
sean komo keremos que sean pero entndamos q las kosas pasan por una razon un propósito
kosa es no darse por vencido y bueno espero que disfruten la rolita vale y A DARLE!!!!
bueno estos son los akordes q van a usar para esta rola son pokitos vdd??!! jaja no pero
se preokupn no es tan komplikado komo podria parecer sólo practica la clave de todo y listo!!
[G] [F#/G7M] [Em] [E] [C] [Cm] [D] [Am] [F] [G5] [F#5] [F5] [E5] [D#5] [D5]  
 
 e|-3-|---2--|-0-|-0-|-0-|-3-|-2-|-0-|-1-|-x--|-x--|-x--|-x-|-x-|-x-|
 b|-0-|---0--|-0-|-0-|-1-|-4-|-3-|-1-|-1-|-x--|-x--|-x--|-x-|-x-|-x-|
 g|-0-|---0--|-0-|-1-|-0-|-5-|-2-|-2-|-2-|-12-|-11-|-10-|-9-|-8-|-7-|
 D|-0-|---x--|-2-|-2-|-2-|-5-|-0-|-2-|-3-|-12-|-11-|-10-|-9-|-8-|-7-|
 A|-2-|---x--|-2-|-2-|-3-|-3-|-x-|-0-|-3-|-10-|-9--|-8--|-7-|-6-|-5-|
 E|-3-|---2--|-0-|-0-|-x-|-x-|-x-|-x-|-1-|-x--|-x--|-x--|-x-|-x-|-x-|

Intro:
 
 e|-3--------3----|
 b|-------0-----0-|
 g|----0----------|
 D|---------------| x4
 A|---------------|
 E|-3-------------|

Estrofa 1:
No se... si estas llorando por que me ...
voy... o porque sabes que volvere...
[G] [G] [F#/G7M] [Em]  
 
 e|-3--------3----|-3--------3----|-2--------2----|-0--------0----|
 b|-------0-----0-|-------0-----0-|-------0-----0-|-------0----0--|
 g|----0----------|----0----------|----0----------|----0--------0-|
 D|---------------|---------------|---------------|---------------|
 A|---------------|---------------|---------------|---------------|
 E|-3-------------|-3-------------|-2-------------|-0-------------|

... Solo soy capaz de dar...
[E] [E] [E] [C]  
 
 e|-0--------0----|-0--------0----|-0--------0----|-0--------0----|
 b|-------0-----0-|-------0-----0-|-------0-----0-|-------1-----1-|
 g|----1----------|----1----------|----1----------|----0----------|
 D|---------------|---------------|---------------|---------------|
 A|---------------|---------------|---------------|-3-------------|
 E|-0-------------|-0-------------|-0-------------|---------------|

dolor... no se...
[Cm] [Cm] [D] [D]  
 
 e|-3--------3----|-3--------3----|-2--------2----|-2--------2----|
 b|-------4-----4-|-------4-----4-|-------3-----3-|-------3-----3-|
 g|----5----------|----5----------|----2----------|----2----------|
 D|---------------|---------------|-0-------------|-0-------------|
 A|---------------|---------------|---------------|---------------|
 E|-3-------------|-3-------------|---------------|---------------|

Estrofa II
... que haria con otra oportinidad...
... si hay mil maneras para traicionar...
[G] [G] [F#/G7M] [Em]  
 
 e|-3--------3----|-3--------3----|-2--------2----|-0--------0----|
 b|-------0-----0-|-------0-----0-|-------0-----0-|-------0----0--|
 g|----0----------|----0----------|----0----------|----0--------0-|
 D|---------------|---------------|---------------|---------------|
 A|---------------|---------------|---------------|---------------|
 E|-3-------------|-3-------------|-2-------------|-0-------------|

... todas ellas llevan a per...
[E] [E] [E] [C]  
 
 e|-0--------0----|-0--------0----|-0--------0----|-0--------0----|
 b|-------0-----0-|-------0-----0-|-------0-----0-|-------1-----1-|
 g|----1----------|----1----------|----1----------|----0----------|
 D|---------------|---------------|---------------|---------------|
 A|---------------|---------------|---------------|-3-------------|
 E|-0-------------|-0-------------|-0-------------|---------------|

..derte una vez mas...
[Cm] [D]  
 
 e|-3--------3----|-2-------------|
 b|-------4-----4-|-3-------------|
 g|----5----------|---------------|
 D|---------------|-0-------------|
 A|---------------|---------------|
 E|-3-------------|---------------|

Coro:
Adonde v[G]an todas esas promesas
que alguna vez h[F]ice y no puede cumplir??
esp[Am]eran en el fondo de tu [G]alma... ten calma
Muetrame l[G]as marcas de las tristezas
las cicatr[F]ices que te di
nunca fu[E]e mi intencion s[F]umergirte
en mi [C]espeso veneno
Estrofa III
No se... si aun tengo tiempo para cambiar
... si aun queda algo por salvar
[G] [G] [F#/G7M] [Em]  
 
 e|-3--------3----|-3--------3----|-2--------2----|-0--------0----|
 b|-------0-----0-|-------0-----0-|-------0-----0-|-------0----0--|
 g|----0----------|----0----------|----0----------|----0--------0-|
 D|---------------|---------------|---------------|---------------|
 A|---------------|---------------|---------------|---------------|
 E|-3-------------|-3-------------|-2-------------|-0-------------|

... no se a perdido nada si aun nos...
[E] [E] [E] [C]  
 
 e|-0--------0----|-0--------0----|-0--------0----|-0--------0----|
 b|-------0-----0-|-------0-----0-|-------0-----0-|-------1-----1-|
 g|----1----------|----1----------|----1----------|----0----------|
 D|---------------|---------------|---------------|---------------|
 A|---------------|---------------|---------------|-3-------------|
 E|-0-------------|-0-------------|-0-------------|---------------|

queda algo mas
[Cm] [D]  
 
 e|-3--------3----|-2-------------|
 b|-------4-----4-|-3-------------|
 g|----5----------|---------------|
 D|---------------|-0-------------|
 A|---------------|---------------|
 E|-3-------------|---------------|

Coro x 2
...nunca f[E]ue mi intencion [F]herirte una [Am]vez [C]mas
Riff: va con un pedal con Distortion
 
 e|-9/10-10-8--------------------------9/10--10-10-10-10-10-10-10-10-|
 b|-----------11-8--8--11--8--11--8----------------------------------|
 g|------------------------------------------------------------------|
 D|------------------------------------------------------------------|
 A|------------------------------------------------------------------|
 E|------------------------------------------------------------------|
 e|-10-10-10-10-10-10-10-10-10-9-9-9-9-8-8-8-8-7-7-7-7-6-6-6-6-|
 b|------------------------------------------------------------|
 g|------------------------------------------------------------|
 D|------------------------------------------------------------|
 A|------------------------------------------------------------|
 E|------------------------------------------------------------|
 e|---6-----6------6------6---8/10----------------------------------------|
 b|-8----7----7-6----6-5----5------11-8---8---8---8---7---7---7---78-8----|
 g|-------------------------------------7---7---7---7---7---7---7---------|
 D|-----------------------------------------------------------------------|
 A|-----------------------------------------------------------------------|
 E|-----------------------------------------------------------------------|

Outro:
[G5] Cre[F#5]i merec[F5]er mas de [E5]una
[D#5] no fui sufici[D5]ente p[F#5]ara do[G5]s
x5
Pues aki c las dejo espero q no haya kedado kmplikda pero al parecr suena bn kuidense a
ganas y a DAR CAÑA!!! kualkier duda que pudiera surgir o si kieren hablar de algo lo q
me enkuentran en messenger en este correo tonny_hk_necros@hotmail.com o si prefieren
un correo me enkuentran en betohk@yahoo.com.mx ok?? suerte y praktikenle!!!! x cieto
ce vale korregir!!! jaja nadie es perfecto!!! XD

Important: The song above is NOT stored on the Chordie server. The original song is hosted at www.guitaretab.com. Chordie works as a search engine and provides on-the-fly formatting. Chordie does not index songs against artists'/composers' will. To remove this song please click here.

Text color:
Chord color:
Chord grids: 
Font size:    
Page size: 

Am C Cm D D#5 D5 E E5 Em F F#5 F5 G G5
Rate #1 of 3 versions

Jango Player

Login - add to songbook

SHARE PAGE  



You need to log in to post comments