Guitar Tabs, Chords and Lyrics
Server problems seems to be fixed. Chordie has been experiencing problems with songs disappearing. These issues now seems to be fixed, but still verifying the fix. If you find anything strange, please email admin@chordie.com.


Verano  Caramelos de Cianuro

Intro:
Riff: Acompañado de C, Dm, Am.
 
 1|------------------------------|
 2|------------------------------|
 3|------------------------------|
 4|------2-------3---------------|
 5|--3-3---3-5-5---5-----3---3---|
 6|------------------5-5---5---5-|
 1|-------------------------------------------|
 2|-------------------------------------------|
 3|-------------------------------------------|
 4|----------2-------3---------------2/3/2/0--|
 5|--0-2-3-3---3-5-5---5-----3--------------3-|
 6|----------------------5-5---5--------------|

Ilumi[C]nada [Dm]madrug[Am]ada luces
[C]del hori[Dm]zonte[Am]
donde apren[C]dimos [Dm]del a[Am]mor,
juntos [C]en un [Dm]mira[Am]dor
recuerda bien el sitio [C]donde tú cre[Dm]ciste[Am]
Porque ahora esa ciu[C]dad Ya no e[Dm]xiste?[Am]
Ahora tu [C]vista me [B]arrastra, me [A#]agarra,
Me [Am]amarra y me [G#]castra.
Y este maldito ve[G]rano
que me tiene dolidas las [C]manos
en mi cama sudando por [G]ti
Yo no [Dm]pienso vi[C]vir
[F]pues son los mismos en[G]gaños
que ahora se detectar con los [Am]años
y la dura lección que apren[Dm]dí,[F]
es que no es[G#]pero más por [C]ti.
 
 1|------------------------------|
 2|------------------------------|
 3|------------------------------|
 4|------2-------3---------------|
 5|--3-3---3-5-5---5-----3---3---|
 6|------------------5-5---5---5-|
 1|------------------------------|
 2|------------------------------|
 3|------------------------------|
 4|----------2-------3-----------|
 5|--0-2-3-3---3-5-5---5---------|
 6|----------------------5-)-)-)-|

Nos desper[C]tamos [Dm]en la [Am]playa
entre Viv[C]iana y [Dm]Nirva[Am]na
la noche en [C]que te [Dm]di el re[Am]loj
[C] [Dm] [Am]  
[1] [9] [9] [2]  
recuerdo que la a[C]rena no era [Dm]tan os[Am]cura
ni que tu volun[C]tad no era [Dm]tan [Am]dura
ahora tus [C]ojos per[B]foran
con[A#]funden me [Am]hunden, me [G#]ignoran?
Y este maldito ve[G]rano
que me tiene dolidas las [C]manos
en mi cama sudando por [G]ti
Yo no [Dm]pienso vi[C]vir
[F]pues son los mismos en[G]gaños
que ahora se detectar con los [Am]años
y la dura lección que apren[Dm]dí,[F]
es que no es[G#]pero más por [A#]ti.
No sé porque te [A#m]veo en s[C#]ueños
en blanco y [F]negro como los [G#]perros
ni porque despierto tem[Cm]blando
Si es el [C]medio del ve[G]rano?
que me tiene dolidas las [C]manos
en mi cama sudando por [G]ti
Yo no [Dm]pienso vi[C]vir
[F]pues son los mismos en[G]gaños
que ahora se detectar con los [Am]años
y la dura lección que apren[Dm]dí,[F]
es que no es[G#]pero más por [C)))]ti.

Important: The song above is NOT stored on the Chordie server. The original song is hosted at www.guitaretab.com. Chordie works as a search engine and provides on-the-fly formatting. Chordie does not index songs against artists'/composers' will. To remove this song please click here.

Text color:
Chord color:
Chord grids: 
Font size:    
Page size: 

A# A#m Am B C C# Cm Dm F G G#
Rate #1 of 2 versions

Jango Player

Login - add to songbook

SHARE PAGE  




You need to log in to post comments