Guitar Tabs, Chords and Lyrics
Server problems seems to be fixed. Chordie has been experiencing problems with songs disappearing. These issues now seems to be fixed, but still verifying the fix. If you find anything strange, please email admin@chordie.com.


Ain't He Messy Though  Cardiacs

'Ain't He Messy Though'
By Cardiacs.
(Guns - 1998)
Standard Tuning (EBGDAE).
Tabbed by MelodyLee
(melodylee84@hotmail.co.uk)
[-] [-] [-]  
[Bm]What's up with eyes?
What's up with e[A]veryones s[G]ad-leeky
[Bm]Wet and wincy e[F#]yes?
A[A]ll a-dri[E]ppin' in time...[G] [D] [A] [E] [G]
[Bm]I gives to prayin'
Over that-[A]he-will-be [G]no
Entertainment f[Bm]or the cr[F#]owd
W[A]hen he ha[E]ngs up...[G] [D] [A] [E] [G]
[D] [A] [E] [Bm] [F#]  
[A] [E]  
[G] [D] [A] [E] [G]  
R[C]oll th[F]em on.[A].. Don't know;
Don't t[G]ry to [C]und[F]ers[A]tand [D]them,
B[A#]rand t[A]hem, [C#m]brand [C#]them
[F]In [D#]the e[E]ye...[G] [D] [A] [E] [G]
(I recommend playing the chords for the woozy middle bit (above) like this...)
 
 E||--0----1----0------3----0--1--0--2----------------5--------||
 B||--1----1----2------3----1--1--2--3---3-/5--5--6---6--8--9--||
 G||--0----2----2------0----0--2--2--2---3-/6--6--6---5--8--9--||
 D||--2----3----2------0----2--3--2--4---3-/7--6--6---7--8--9--||
 A||--3----3----0------2----3--3--0-(5)--1-/7--4--4--(8)-6--7--||
 E||--3----1-----------3----3--1----------------------------0--||

[Bm]What's up with eyes?
What's [A]up with e[G]veryones sad-leeky
W[Bm]et and wincy e[F#]yes?
H[A]ow he ha[E]ngs up...[G] [D] [A] [E] [G]
[Dm]So easy to
da[C]mage a B[A#]ee or a
Pr[Dm]ecious red ru[A]by
A[C]ll di[G]rty... Ain't he messy though![A#]
Outro Fill:
 
 E||-----------------------||
 B||-----------------------||
 G||--3--2-0---------------||
 D||----------3--2--0------||
 A||------------------3-1--||
 E||-----------------------||

[-] [-] [-] 

Important: The song above is NOT stored on the Chordie server. The original song is hosted at www.guitaretab.com. Chordie works as a search engine and provides on-the-fly formatting. Chordie does not index songs against artists'/composers' will. To remove this song please click here.

Text color:
Chord color:
Chord grids: 
Font size:    
Page size: 

A A# Bm C C# C#m D D# Dm E F F# G
Rate #1 of 2 versions

Login - add to songbook

SHARE PAGE  




You need to log in to post comments