Guitar Tabs, Chords and Lyrics
Server problems seems to be fixed. Chordie has been experiencing problems with songs disappearing. These issues now seems to be fixed, but still verifying the fix. If you find anything strange, please email admin@chordie.com.


Names Mean Nothing   Carnifex

 
 -------------------------------------------------------------------------------

 


 Names Mean Nothing - Carnifex


 

 
 -------------------------------------------------------------------------------

 


 Tabbed by: Cory Arford(guitarist in Carnifex)


 Email: fingerwork420@gmail.com


 


 Tuning:A,E,A,D,G,B,E


 


 h: hammer on


 p: pull off


 underlined notes are palm muted


 ~: vibrato


 ^: pinch harmonic


 (#): pitch bend like a dive bomb.


 


 Both guitars


 Intro


 

 
 E-------------------------------------------------------------------------------|
 B-------------------------------------------------------------------------------|
 G-------------------------------------------------------------------------------|
 D-------------------------------------------------------------------------------|
 A-------------------------------------------------------------------------------|
 E--4h7p4--3h6p3-----6h9p6--5h8p5-----8h11p8--7h10p7-----11h14p11--10h13p10------|
 A---------------0-0--------------0-0----------------0-0--------------------0-0--|
 - - - - - - - -

 


 


 Riff 1


 BOTH GUITARS All 16th note trem picking


 

 
 E-------------------------------------------------------------------|
 B-------------------------------------------------------------------|
 G-------------------------------------------------------------------|
 D-------------------------------------------------------------------|
 A----------------------------3-2------------------------------------|
 E------1---------------1---------3-----1---------------1---4-3-2-1--|
 A--4-1---4-0-3-6-3-4-1---4-1-------4-1---4-0-3-6-3-4-1---4-5-4-3-2--|

 


 [-] [-] [-] [-] 


 


 Riff 2(A)


 Both Guitars


 

 
 E------------------------------------------------------------------------------------------------|
 B------------------------------------------------------------------------------------------------|
 G------------------------------------------------------------------------------------------------|
 D------------------------------------------------------------------------------------------------|
 A--------------2-----------------------------------------------2-----------------------5---3---2-|
 E--0---2---3-------3---2---5---3---2---3---2-------0---2---3-------3---2---5---3---2-------------|
 A----0---0---0---0---0---0---0---0---0---0---0-3-0---0---0---0---0---0---0---0---0---0---0---0---|
 - - - - - - - - - - - - - - - - - - - - - - -

 


 


 Riff 2(B)


 

 
 E------------------------------------------------------------------------------------------------|
 B------------------------------------------------------------------------------------------------|
 G------------------------------------------------------------------------------------------------|
 D------------------------------------------------------------------------------------------------|
 A--------------2-----------------------------------------------2-----------------------5---3---2-|
 E--0---2---3-------3---2---5---3---2---3---2-------0---2---3-------3---2---5---3---2-------------|
 A----0---0---0---0---0---0---0---0---0---0---0-3-0---0---0---0---0---0---0---0---0---0---0---0---|
 - - - - - - - - - - - - - - - - - - - - - - -

 


 


 Riff 3(A)


 

 
 E-----------------------------------------------------------------------------|
 B-----------------------------------------------------------------------------|
 G-----------------------------------------------------------------------------|
 D-----------------------------------------------------------------------------|
 A----------------------------------7------------------------12---10h12p10-----|
 E--8-----7-----8---10---8---7-8-10-------12-----12---12-------------------12--|
 A----0-0---0-0---0----0---0----------8-8----8-8----8----7-7----7--------------|
 - - - - - - - - - - - - - - -

 


 


 Riff 3(B)


 

 
 E----------------------------------------------------------------------|
 B----------------------------------------------------------------------|
 G----------------------------------------------------------------------|
 D----------------------------------------------------------------------|
 A----------------------------------7-----------------------------------|
 E--8-----7-----8---10---8---7-8-10-------10-----8---7-----7------------|
 A----0-0---0-0---0----0---0----------8-8----8-8---8---8-8---8-8-7-7-5--|
 - - - - - - - - - - - - - - - - -

 


 


 Riff 4


 first b-down THE GUITARS DO A SPLIT THING HERE THEN THE B-DOWN STARTS


 this b-down ends right before the walk the secondtime and there's a drum fill


 

 
 E---------------------------------------------------------------|
 B---------------------------------------------------------------|
 G---------------------------------------------------------------|
 D---------------------------------------------------------------|
 A---------------------------------------------------------------|
 E--0-0--0-0--0-0-0-0--0-0--0-0-0-0--0-0--0-0-3h6p3-2h5p2----3^--|
 A--1-1--1-1--1-1-1-1--1-1--1-1-1-1--1-1--1-1-------------00-----|
 |-------------------------------------------------------------|
 |-------------------------------------------------------------|
 |-------------------------------------------------------------|
 |--------------------------------------------------------3h4--|
 |----------------------------------------------------2h3------|
 |--0-0--0-0--0-0-0-0--0-0--0-0-0-0--0-0--0-0-----3h4----------|
 |--1-1--1-1--1-1-1-1--1-1--1-1-1-1--1-1--1-1-2h3--------------|
 - - - - - - - - - - - - - - - - - - -- 

 


 then.....


 


 Riff 5


 the second guitar moves up 3 frets for a hrmony on this and it's the only harmony in the song


 both here and at the end. easy shit


 

 
 E-------------------------------------------------|
 B-------------------------------------------------|
 G-------------------------------------------------|
 D-------------------------------------------------|
 A-------------------------------------------------|
 E-------------------------------------------------|
 A--1--1-1--1--1-1--1-4-1-2~--2-2--2--2-2--2-5-4-2-|
 ---------------------------------------------------|
 ---------------------------------------------------|
 ---------------------------------------------------|
 ---------------------------------------------------|
 ---------------------------------------------------|
 ---------------------------------------------------|
 --1--1-1--1--1-1--1-4-1-2^~--2-2--2--2-2--2-5-4-2--|
 - - - - - - - - - - - - - - - - 

 


 THE REAL B-DOWN ALL PALM MUTED, SUPER TIGHT! NO RINGS.


 

 
 D-------------------------------------------------------------------|
 A-------------------------------------------------------------------|
 E--222-1---1111-1--222-1--444-1-222-1-444-1---1111-1-222-1---1------|
 A--222-1---1111-1--222-1--444-1-222-1-444-1---1111-1-222-1---1-(2)--|
 --- - ---- - --- - --- - --- - --- - ---- - --- - -


Important: The song above is NOT stored on the Chordie server. The original song is hosted at www.guitaretab.com. Chordie works as a search engine and provides on-the-fly formatting. Chordie does not index songs against artists'/composers' will. To remove this song please click here.

This song is displayed as text-only. Transposing and tuning is only available for chordpro-songs.
Rate #1 of 4 versions

Login - add to songbook

SHARE PAGE  




You need to log in to post comments