Guitar Tabs, Chords and Lyrics
Major upgrade!! After one year development the new version of Chordie is now online! Please give feedback.


Goodbye to Love  Carpenters

Okay, here's the first version on the net I believe, with the first solo tabbed, it's no
that it is all correct but it works.
The solo is my own work, the rest is someone elses. I did'nt find any owner of the tab
i borrowed it, thanks! enjoy!
I[G]?l[(add9)]l say good[G]bye t[Am7]o love, No one e[D7]ver cared if I should l[G]ive or di[D/F#]e
T[G]ime and time ag[D/F#]ain the chance for l[B]ove has passed me [Em]by
A[G]nd all I know of l[Am7]ove is how to l[G/B]ive without it, I j[B7]ust can?t seem to f[Em]ind
it[(Em/D] [C)]
So I?ve made[G] my mind up [Am7] I must live [G/B]my life alone[D]
And thoug[G]h its not the easy way I guess[Am7] I?ve always k[G/B]nown.[D]
I?d say goodb[G]ye[(add9)] to love[G]
[Am7]There are no tomo[D7]rrows for this heart of[G] mine[D/F#]
[G]Surely time will[D/F#] lose these bitter memories[B] [Em]
And Ill find t[G]hat there is someone to [Am7]believe in[G/B]
and to live for, somethin[B7]g I could live for[Em] [(Em/D] [C)]
All the year[G]s of useless[Am7] search h ave[G/B] finally reached an end[D]
Loneliness a[G]nd empty day[Am7]s will be my [G/B]only friend[D]
From this day l[B7]ove is forgotten, I?ll [Em]go on as be[Am7]st I can[D7]
Solo:
 
 E|--------------------------------------------------------------------|
 B|--------------------3-2-1--1-3-4-6----6--6-6-6-8-6------------------|
 G|------2-5-4-3-----------------------7---------------8-7-5-7---7-5---|
 D|--3-5-----------4-5-----------------------------------------7-------|
 A|--------------------------------------------------------------------|
 E|--------------------------------------------------------------------|
 E|-----------------------------------------------------------10-------|
 B|--------------------------------------------------------11----------|
 G|-----------------------------------------------------10-------------|
 D|-8-7-5-8----------8-10-8-11b-11b-11b-11b-10-8-10--12----------------|
 A|----------8-8-8-8---------------------------------------------------|
 E|--------------------------------------------------------------------|
 E|----------------------------15--------------------------------------|
 B|-12b-10------------------11----13b-11--13-11-13-11------------------|
 G|--------11--9-7-9-----10---------------------------10---------------|
 D|--------------------8-----------------------------------------------|
 A|--------------------------------------------------------------------|
 E|--------------------------------------------------------------------|

What lies in[G] the future [Am7]is a mystery [G/B]to us all[D]
No one can p[G]redict the w[Am7]heel of fortu[G/B]ne as it falls[D]
[E]There may come a time w[Bm7/E]hen I will see that I?ve b[E6]een wrong[Bm7/E]
But for now t[E]his is my song; [Bm7/E] And [E7]it?s goodbye to l[A]ov[(add9)]e[A]
[Bm7/E]I?ll say g[A]oo[(add9)]dbye to lo[A]ve.
Final Stupendous solo
[A] [E/A] [G7/A] [D] [Dm6] [A/E] [B7] [E] 

Important: The song above is NOT stored on the Chordie server. The original song is hosted at www.guitaretab.com. Chordie works as a search engine and provides on-the-fly formatting. Chordie does not index songs against artists'/composers' will. To remove this song please click here.

Text color:
Chord color:
Chord grids: 
Font size:    
Page size: 

A A/E Am7 B B7 Bm7/E D D/F# D7 Dm6 E E6 E7 Em G G/B
Rate #2 of 7 versions

Login - add to songbook

SHARE PAGE  




You need to log in to post comments