Guitar Tabs, Chords and Lyrics
Login is temporarily disabled for some users. Do not panic. Will be back in an hour or two. DO NOT REREGISTER!!


Flat On the Floor   Carrie Underwood

 
 e ---0--------------------------0------------------------------------------|
 B -----3-----3--------------------3-----3----------------------------------|
 G -------0-2---0-2-0----------------0-2---0-2-0----------------------------|
 D -------------------2-0------------------------2-0------------------------|
 A -0---------------------3----0----------------------3---------------------|
 E -------------------------------------------------------------------------|
 e ---0--------------------------0------------------------------------------|
 B -----3-----3--------------------3-----3----------------------------------|
 G -------0-2---0-2-0----------------0-2------------------------------------|
 D -------------------2-0------------------0---0-2--------------------------|
 A -0---------------------3----0-------------3-----2b-0---------------------|
 E -------------------------------------------------------------------------|

 


 


 electric guitar riff:


 

 
 e -------------------------------------------------------------------------|
 B -14-15--13-13-12--10-10--15-15-14----14-15--13-13-12--10-10--------------|
 G -14-14--12-12-12--11-12--14-14-14----14-14--12-12-12--11-12---------2*---|
 D -14-16--14-14-12--12-12--16-16-14----14-16--14-14-12--12-12---------2----|
 A --------------------------------------------------------------3-0---0----|
 E ------------------------------------------------------------------3------|

 


 * on that last A5 chord, if you have a tremolo bar, try and get the pitch


 shifts - there's 3


 


 VERSE:


 


 A/// A/// A/// A/*// A///


 


 [G///] [A///] [G///] [A///] [G///] [A///] [B///] [E///]  


 CHORUS:


 'Cause I'm flat on the floor with my head down low, where the sky can't


 

 
 e -------------------------------------3------------------------2----------|
 B -----------2-------------------------3------------------------3----------|
 G -----------2-------------------------0------------------------2----------|
 D -----------2-------------------------0------------------------0----------|
 A -----------0-------------------------2-----------------------------------|
 E -------------------------------------3-----------------------------------|

 


 rain on me any more. Don't knock on my door 'cause I won't come


 

 
 e -----------2---------------------------------------3---------------------|
 B -----------3---2-----------2-----------------------3---------------------|
 G -----------2---2-----------2-----------------------0---------------------|
 D -----------0---2-----------2-----------------------0---------------------|
 A ------------3--0-----------0-----------------------2---------------------|
 E ---------------------------------------------------3---------------------|

 


 I'm hidin' from the storm 'til the damage gets done.'


 

 
 e ----2--------------------------------------------------------------------|
 B ----3--------------------------------------------------------------------|
 G ----2----------------------------------------2---------------------------|
 D ----0----------------------------------------2---------------------------|
 A -----------------------------------3-0----3--0---------------------------|
 E -------------------------------------------------------------------------|


Important: The song above is NOT stored on the Chordie server. The original song is hosted at www.guitaretab.com. Chordie works as a search engine and provides on-the-fly formatting. Chordie does not index songs against artists'/composers' will. To remove this song please click here.

This song is displayed as text-only. Transposing and tuning is only available for chordpro-songs.
Rate #1 of 9 versions

Login - add to songbook

SHARE PAGE  




You need to log in to post comments