Guitar Tabs, Chords and Lyrics
Login is temporarily disabled for some users. Do not panic. Will be back in an hour or two. DO NOT REREGISTER!!


Inside Your Heaven  Carrie Underwood

Tabbed by:young
Email:youngjt7@yahoo.com
This is my first tab. I'm not completey sure about this.. But it sounds pretty much close to the song.
Tuning:EADGBe
[G] [C9] [Em] [Am] [G/B] [D/F] [D2]  
 
 e|--3---3----3---3---3----3---2-------------|
 B|--3---3----3---3---3----3---3-------------|
 G|--0---0----0---2---0----2---2-------------|
 D|--0---2----2---2---0----0---0-------------|
 A|--2---3----2---0---2----x---x-------------|
 E|--3--------0------------2---2-------------|

INTRO: G ? C9 (2x)
I?ve been d[G]own
Now I?m ble[C9]ssed
I f[G]elt a revelation coming aro[C9]und
I guess it?s r[Em]ight, it?s so am[C9]azing
[G]Everytime I [D/F]see you I?m al[C9]ive
You?re all I?v[Em]e got
You lift m[C9]e up
The sun and the mo[Am]onli[-]ght[G/B]
[Am] [-] [G/B]  
 
 e|----3-3---------------------3----------------------------------------------|
 B|----3-3---------------------3----------------------------------------------|
 G|----2-2--------0------------0----------------------------------------------|
 D|----2-2--------0------------0----------------------------------------------|
 A|----0-2--------0------------2----------------------------------------------|
 E|---------------------------------------------------------------------------|

Fig. 1
C9 D/F ? D2
All my dreams are in your eyes
CHORUS:
[G]I wanna be inside your h[C9]eaven
Am ? G/B (Fig.1)
Take me to the place you cry from
C9 D/F ? D2
Where the storm blows your way
[G]And I wanna be the earth that h[C9]olds you
Every bit of air you?re brea[Am]thing[-] in
G/B (Fig.1)
A soothing wind
I w[C9]anna be ins[D/F]ide your he[G]aven
G ? C9 pause
When we t[G]ouch
When we l[C9]ove
The s[G]tars light up, the wrong becomes undo[C9]ne
Natural[Em]ly, my soul surr[C9]enders
Am - G/B (Fig.1)
The sun and the moonlight
All my dr[C9]eams are in your e[D/F]yes
When m[Em]inutes turn to d[D2]ays and years
If mo[G]untains fall I?d [Am]still be here
[Em]Holding you un[D2]til the day I [Am]die

Important: The song above is NOT stored on the Chordie server. The original song is hosted at www.guitaretab.com. Chordie works as a search engine and provides on-the-fly formatting. Chordie does not index songs against artists'/composers' will. To remove this song please click here.

Text color:
Chord color:
Chord grids: 
Font size:    
Page size: 

Am C9 D/F D2 Em G G/B
Rate #1 of 8 versions

Login - add to songbook

SHARE PAGE  




You need to log in to post comments