Guitar Tabs, Chords and Lyrics
Major upgrade!! After one year development the new version of Chordie is now online! Please give feedback.


Visions of Mortality   Celtic Frost

 
 d------

 


 [a-----2]e-2---0


 (a.h.)


 


 Riff 1


 

 
 d----------------------------------------------------5
 a-2-2-2--5--2-2-2--7-8--2-2-2--5-6--2-2-2--4--2-2-2--3
 e-0-0-0--3--0-0-0--5-6--0-0-0--3-4--0-0-0--2--0-0-0---

 


 p.m...


 


 

 
 d----------------------------------------
 a-2-2-2--7-8--2-2-2--5-6--2-2-2--4--2-2-2
 e-0-0-0--5-6--0-0-0--3-4--0-0-0--2--0-0-0
 d-5-------------------------------------------5--
 a-3--2-2-2--7-8--2-2-2--5-6--2-2-2--4--2-2-2--3--
 e----0-0-0--5-6--0-0-0--3-4--0-0-0--2--0-0-0-----
 d-------------------------
 a-2-2-2--7-8--2-2-2--5-6--
 e-0-0-0--5-6--0-0-0--3-4--

 


 


 Riff 2


 

 
 a------------------------------------3-4
 e-0-0-0-0-0-0-6-0-0-0-0-0-5-0-0-0-0-0---

 


 p.m......... ......... .........


 


 

 
 a--------------------------------------3
 e-0-0-0-0-0-0-6-0-0-0-0-0-5-0-0-0-0-0---

 


 .......... ......... .........


 


 Riff 3 (Vocals)


 

 
 d------------------8-----------------
 a-22222222...... ..6--222222222-----8-

 


 e-00000000.........---000000000.....6-


 -I don't know the exact number of times


 the E5 chord is played,


 so just listen to the song


 


 Riff 4


 

 
 a-444444.............9-8----
 e-222222.............7-6----

 


 


 Riff 5


 

 
 a-6-6-6-2-4-4-8-8--
 e-4-4-4-0-2-2-6-6--

 


 


 


 Riff 6 (A)


 

 
 a-12--7--6-6--6--6-6-6-6--6--6-6-6-6--6--
 e-10--5--4-4--4--4-4-4-4--4--4-4-4-4--4--

 


 h. h. h.


 [(B)]  

 
 a-14--9--8-8--8--8-8-8-8--8--8-8-8-8--8
 e-12--7--6-6--6--6-6-6-6--6--6-6-6-6--6

 


 h. h. h.


 


 [(C)]  

 
 a-10--5--4-4--4--4-4-4-4--4--4-4-4-4--4
 e--8--3--2-2--2--2-2-2-2--2--2-2-2-2--2

 


 h. h. h.


 


 [(D)]  

 
 a.-12--7--6--6-6-6--6-6-6-
 e.-10--5--4--4-4-4--4-4-4-

 


 


 Riff 7


 a-22222...........33333.......


 e-00000...........11111......


 


 Riff 8


 

 
 d-7--9-10-9--4
 a-5--7-8--7--2

 


 


 Riff 9


 

 
 a-5--5555555.......3-4--5-555555......4-4-4
 e-3--3333333.......1-2--3-333333......2-2-2

 


 p.m...... ...........


 


 


 Riff10


 

 
 d-------------------9-8-7-6-5
 a-2-222222..........7-6-5-4-3
 e-0-000000..........---------


Important: The song above is NOT stored on the Chordie server. The original song is hosted at www.guitaretab.com. Chordie works as a search engine and provides on-the-fly formatting. Chordie does not index songs against artists'/composers' will. To remove this song please click here.

This song is displayed as text-only. Transposing and tuning is only available for chordpro-songs.
Rate #3 of 3 versions

Login - add to songbook

SHARE PAGE  




You need to log in to post comments