Guitar Tabs, Chords and Lyrics
Major upgrade!! After one year development the new version of Chordie is now online! Please give feedback.


Ground   Celtic Frost

 
 D|----------------------------------|
 A|----------------------------------|
 F|----------------------------------|
 C|-1--1----0--0----3--3----2--2-----|
 G|-1--1----0--0----3--3----2--2-----|
 C|-1--1----0--0----3--3----2--2-----|

 


 


 Riff 2 (Verse)


 

 
 D|------------------------------------------------|
 A|------------------------------------------------|
 F|------------------------------------------------|
 C|------------------------------------------------|
 G|------------------------------------------------|
 C|-1h0-0-0-1h0-0-0-1h0-0-0-1b-1b-1b---------------|

 


 


 Riff 3 (Chorus)


 

 
 D|------------------------------------------------------|
 A|------------------------------------------------------|
 F|------------------------------------------------------|
 C|-1-1-1-1--0-0-0-0-------------3-3-3-3--2-2-2-2--------|
 G|-1-1-1-1--0-0-0-0-------------3-3-3-3--2-2-2-2--------|
 C|-1-1-1-1--0-0-0-0-------------3-3-3-3--2-2-2-2--------|

 


 [s] [s] 


 Riff 4 (Interlude)


 

 
 D|------------------------------|
 A|------------------------------|
 F|------------------------------|
 C|-1-1--1-1--1-1--1-1-----------|
 G|-1-1--1-1--1-1--1-1-----------|
 C|-1-1--1-1--1-1--1-1-----------|


Important: The song above is NOT stored on the Chordie server. The original song is hosted at www.guitaretab.com. Chordie works as a search engine and provides on-the-fly formatting. Chordie does not index songs against artists'/composers' will. To remove this song please click here.

This song is displayed as text-only. Transposing and tuning is only available for chordpro-songs.
Rate #1 of 2 versions

Jango Player

Login - add to songbook

SHARE PAGE  




You need to log in to post comments