Guitar Tabs, Chords and Lyrics
Server problems seems to be fixed. Chordie has been experiencing problems with songs disappearing. These issues now seems to be fixed, but still verifying the fix. If you find anything strange, please email admin@chordie.com.


Molten Light  Chad VanGaalen

Tabbed by: .:ezra:.
E A D G B e
[Am]F [5]x [7]8 [7]10 [5]10 [5]10 [5]8
C x 3 5 5 5 3
E x 7 9 9 9 7
G 3 2 0 0 0 3
for the chorus use
F x 3 3 2 1 0
At the end of each line in the Verses Am (002210) is used for the fiddly
bits he does, but the Higher Am must be used for the intro to get the notes dubbed
over the guitar strumming.
Intro: strum Am
Verse:
[Am] They [F]dumped her body [C]into the [E]molten lig[Am]ht
[F]Floated to the [C]surface and it [E]did not ig[Am]nite
[F]She rose up [C]slowly and [E]walked to the sh[Am]ore
[F]She stood up on the [C]bank and [E]whispered
Chorus:
[Am]I?ll find you and I?ll [G]kill [F]you
[Am]I?ll find you and I?ll [G]kill [F]you
[Am]I?ll find you and I?ll [G]kill [F]you
Verse:
[Am] They [F]ran back into [C]town and [E]hid in the ch[Am]urch
They [F]explained their [C]situation and they [E]feared for the wo[Am]rst
The [F]priest told the [C]brothers that she [E]could not be ki[Am]lled
She [F]flew out of the [C]stone cold [E]ground and
Chorus:
[Am]She?ll find you and she?ll [G]kill [F]you
[Am]She?ll find you and she?ll [G]kill [F]you
[Am]She?ll find you and she?ll [G]kill [F]you
Bridge:
(Barre Chords:)
[F] [G]  
 
 E--------------------------------------|
 A-------------8------------------------|
 D------9---------9---------------------|
 G-7------------------------------------|
 B--------------------------------------|
 e--------------------------------------|

Oh oh oh oh...
 
 E--------------------------------------|
 A-------------8------------------------|
 D------9---------9---------------------|
 G-7------------------------------------|
 B--------------------------------------|
 e--------------------------------------|

Oh oh oh oh...
 
 E-------------------------00000--------|
 A-------------8-----------11111--------|
 D------9---------9--------22222--------|
 G-7--------------------0--22222--------|
 B-------------------------00000--------|
 e-------------------------00000--------|

Oh oh oh oh...
Repeat once
Verse
[Am] There was a [F]knock at that [C]door that shook [E]straight through their he[Am]arts
She [F]blew it right [C]open and [E]tore it a[Am]part
She [F]shot a string of [C]flame from the [E]center of her ch[Am]est
As she [F]watched their bodies [C]burn she [E]whispered
Chorus:
I [Am]found you and I [G]killed [F]you
I [Am]found you and I [G]killed [F]you
I [Am]found you and I [G]killed [F]you
Outro: Barre chords
[F] [G] [C]  

Important: The song above is NOT stored on the Chordie server. The original song is hosted at www.guitaretab.com. Chordie works as a search engine and provides on-the-fly formatting. Chordie does not index songs against artists'/composers' will. To remove this song please click here.

Text color:
Chord color:
Chord grids: 
Font size:    
Page size: 

Am C E F G
Rate #1 of 5 versions

Jango Player

Login - add to songbook

SHARE PAGE  




You need to log in to post comments