Guitar Tabs, Chords and Lyrics
Server problems seems to be fixed. Chordie has been experiencing problems with songs disappearing. These issues now seems to be fixed, but still verifying the fix. If you find anything strange, please email admin@chordie.com.


Weirdo  The Charlatans

Song: Weirdo
Tunning: standard
Tabbed by: Indie Nation (Dan)
this is a great song, please rate cheers
Intro
Hammond riff:
F#m7 F#m6 F#m b6(?) F#m F#m6
 
 E|----------2--|----------2--|----------2--|----------2--2--|
 B|----------5--|----------4--|----------3--|----------2--4--|
 G|----------2--|----------2--|----------2--|----------2--2--|
 D|----------4--|----------4--|----------4--|----------4--4--|
 A|-------------|-------------|-------------|----------------|
 E|--2-2-2-2----|--2-2-2-2----|--2-2-2-2----|--2-2-2-2-------|

Play this twice, then twice again but with the following guitar overdub
(bang a bit of reverse reverb on it if you can)
[F#m7] [F#m6] [F#m] [b6] [F#m] [F#m6]  
 
 E|----|----|-----|----------------|
 B|--5-|--4-|--3--|-2h3p2h3-2h3h4--|
 G|----|----|-----|----------------|
 D|----|----|-----|----------------|
 A|----|----|-----|----------------|
 E|----|----|-----|----------------|

Now the organ riff changes, play this once:
[F#m] [Gm] [F#m] [Em]  
 
 E|----------------------------|----------------------------|
 B|----------------------------|----------------------------|
 G|--2-2---2-2---2-2---2-2--3--|--2-2---2-2---2-2---2-2--O--|
 D|--2-4---2-4---2-4---2-4--5--|--2-4---2-4---2-4---2-4--2--|
 A|--2-4---2-4---2-4---2-4--5--|--2-4---2-4---2-4---2-4--2--|
 E|--2-2---2-2---2-2---2-2--3--|--2-2---2-2---2-2---2-2--O--|

Keep this last riff going through the first verse:
[F#m]Most of the time you are [Gm]happy,
[F#m]You're a weirdo.[Em]
[F#m]And before the introducti[Gm]on ends
[F#m]There's someone feeling sorry for [Em]their selves.
Chorus
(Here's where you stomp on your tremolo pedal- Hit each chord once
and hold)
[Dm]Look at your ugly shame,
[G]What are you talking for?
[Dm]Look at your ugly shame.[G]
It's back to the original organ riff for the second verse:
[F#m7]Most of the time [F#m6]you're demanding,
[Fm#]What[b6] am I doing here, and [F#m]I don't want to [F#m6]be.
[F#m7]And the hurt in w[F#m6]hich you bare
[Fm#]You [b6]could say goodbye to this earth[F#m].[F#m6]
Chorus
[Dm]Look at your ugly shame,
[G]What are you talking for?
[Dm]Look at your ugly shame.
[G]There's too much for me to know about.
Instrumental
After a bar of percussion there's a bass solo. It's something vaguley
like this:
 
 G|------------------------|
 D|--4-4---4---4---4--2-2--|
 A|------4---4---4---------| x3
 E|------------------------|

Guitar Solo
 
 E|----------|----2-----|--2-2--------------|
 B|-------5--|--5----2--|--2-2--2-----------|
 G|----2-----|----------|-------2------2----|
 D|--2-------|----------|---------2-4----4--|
 A|----------|----------|-------------------|
 E|----------|----------|-------------------|

Now with the 1st organ riff underneath:
[F#m7] [F#m6] [F#m] [b6]  
 
 E|------7------7---5---|------7------7---5---|--7--9--7--9-7-----|
 B|--5h7----5h7---7---7-|--5h7----5h7---7---7-|---------------10--|
 G|---------------------|---------------------|-------------------|
 D|---------------------|---------------------|-------------------|
 A|---------------------|---------------------|-------------------|
 E|---------------------|---------------------|-------------------|

[F#m]  
 
 E|------7------7-----|----2\---|
 B|--5h7----5h7-------|----2\---|
 G|-------------------|----2\---|
 D|-------------------|---------|
 A|-------------------|-4-------|
 E|-------------------|-2-------|

There's a half-bar of weird Delay-feedback effects- you could just
scrape your plectrum up and down the strings.
Verse 3
[F#m7]Most of the time you are [F#m6]happy,
[Fm#]You'[b6]re a weirdo.[F#m] [F#m6]
[F#m7]And your nerve is my devi[F#m6]ce,
[Fm#]And [b6]it makes me sa[F#m]d.[F#m6]
Chorus
[Dm]Look at your ugly shame,
[G]What are you talking for?
[Dm]Look at your ugly shame.
[G]There's too much for me to know about.
Two bars of drums then another bass solo:
 
 G|-------------------|
 D|-------------------|
 A|----O-O-2--O-2-4-2-| x4
 E|--2----------------|

Repeat Hammond Organ Riff 1, twice. Then it's:
[Dm] [C]  
 
 E|-----------------------------|
 B|--6-6-X-6-6-X-6-6-X-5-5-5-5--|
 G|--7-7-X-7-7-X-7-7-X-5-5-5-5--|
 D|--7-7-X-7-7-X-7-7-X-5-5-5-5--| x2
 A|--5-5-X-5-5-X-5-5-X-5-5-5-5--|
 E|-----------------------------|

Now it's the outro solo played on some kind of organ-slash-synth. It's
probabaly a bit sloppy but it'll give you an idea. It's played over the
first organ riff again.
[F#m7] [F#m6] [F#m] [b6] [F#m]  
 
 E|--------------------|--------------------|------------------------|
 B|--------------------|--------------------|------------------------|
 G|--------------------|--------------------|------------------------|
 D|--------------------|--------------------|------7------------7----|
 A|--7h9p7h9p7h9p7/12--|--7h9p7h9p7h9p7/12--|--7-9---9-7-9-7-9----9--|
 E|--------------------|--------------------|------------------------|

[F#m7] [F#m6] [F#m] [b6] [F#m]  
 
 E|-----------------------|---------------|---------------|--------|
 B|-----------------------|---------------|---------------|--------|
 G|-----------------------|---------------|---------------|--------|
 D|----------------7---7--|--9-7-------7--|--9-11-9-7---7-|---7----|
 A|--7-9--7-9--7-9---9----|------9-7-9----|-----------9---|-9---9--|
 E|-----------------------|---------------|---------------|--------|

[Dm] [C] [Dm] [C] [Dm]  
 
 E|-----------------------------|-----------------------------|-5-|
 B|--6-6-X-6-6-X-6-6-X-5-5-5-5--|--6-6-X-6-6-X-6-6-X-5-5-5-5--|-6-|
 G|--7-7-X-7-7-X-7-7-X-5-5-5-5--|--7-7-X-7-7-X-7-7-X-5-5-5-5--|-7-|
 D|--7-7-X-7-7-X-7-7-X-5-5-5-5--|--7-7-X-7-7-X-7-7-X-5-5-5-5--|-7-|
 A|--5-5-X-5-5-X-5-5-X-5-5-5-5--|--5-5-X-5-5-X-5-5-X-5-5-5-5--|-5-|
 E|-----------------------------|-----------------------------|---|

====>
Chords:-
F#m [EADGBE]244222 Em [EADGBE]O22OOO
F#m7 244252 Dm X57765
[F#m6]F#m b6 [244242]244232 [G]C [355633]X3555X
[Gm] [355333]  
Please rate That's it Cheers.

Important: The song above is NOT stored on the Chordie server. The original song is hosted at www.guitaretab.com. Chordie works as a search engine and provides on-the-fly formatting. Chordie does not index songs against artists'/composers' will. To remove this song please click here.

Text color:
Chord color:
Chord grids: 
Font size:    
Page size: 

C Dm Em F#m F#m6 F#m7 G Gm
Rate #2 of 3 versions

Jango Player

Login - add to songbook

SHARE PAGE  



You need to log in to post comments