Guitar Tabs, Chords and Lyrics
Server problems seems to be fixed. Chordie has been experiencing problems with songs disappearing. These issues now seems to be fixed, but still verifying the fix. If you find anything strange, please email admin@chordie.com.


I Don't Want to See the Sights  The Charlatans

I don't want to see the sights
==============================
Use these chord voicings to get the right sound.
In most cases the 6th string will have to be fretted with your thumb.
T=tenth fret.
EADGBe
G5 3X5033
G6 3X5053
G7 3X5063
A7 X07055 or 5X7055
A7(add F#)X07075 or 5X7075
Dm7 XX0TT8
C XXT988
G XX0787
[G5] [G6] [G7] [G6]  
[G5] [G6] [G5] [G6]  
[G5] [G6] [G7] [G6]  
[G5] [G6] [G7] [G6]  
Another happy [G5]lad [G6]with dirty pictures platered on the [G7]wall,[G6]
A British beach col[G5]lection, a c[G6]lassic alcoholic argu[G7]ment.[G6]
[A7] I don't want to see the [A7addF#]sights, there's nothing [A7]worse, t[A7addF#]hank God,
I don't have to see the s[G5]ights.[G6] [G7] [G6]
[G5] [G6] [G7] [G6]  
This bloody [G5]city, I [G6]don't want to waste another [G7]year,[G6]
Likewising [G5]ozones, [G6]falling from the sky in front of [G7]me.[G6]
[A7] I don't want to see the [A7addF#]sights, there's nothing [A7]worse, t[A7addF#]hank God,
I told you not to see the [G5]sights.[G6] [G7] [G6]
[Dm7] [C] [G]  
[Dm7] [C] [G]  
[Dm7]G5 G[C]6 [G]G7 G6*
* Over this G6 an over dub plays:
[G6] [G5]  
 
 e|-------------------------|
 B|--5b(6)-(6)-(6)r5p3p0-3--|
 G|-------------------------|
 D|-------------------------|
 A|-------------------------|
 E|-------------------------|

[G5] [G6] [G7] [G6]  
So this is [G5]life, you [G6]don't seem like history to [G7]me,[G6]
Tell me, I don't [G5]know but are the [G6]bruises on your face stick-on [G7]ones?[G6]
[Dm7] Why don't I [C]find out [G]what you [Dm7]want?
There's never a [C]place I've [G]been through.
[Dm7] You're gonna wind up with [C]every [G]so-and-[Dm7]so,
You're gonna wind up with [C]you and [G]you and [Dm7]you.
[Dm7] [C] [G]  
 
 e|------------------------------------------|
 B|------6-----6---6----5--------------------|
 G|--5h7---5h7---7---7----5-5-5-4---------5--|
 D|-------------------------------5-5-5h7----|
 A|------------------------------------------|
 E|------------------------------------------|

[Dm7] [C] [G]  
 
 e|---------------------8-7---8-7---7--------|
 B|------6-----6---6--------8-----8----------|
 G|--5h7---5h7---7---7-----------------------|
 D|------------------------------------------|
 A|------------------------------------------|
 E|------------------------------------------|

[Dm7] [C] [G]  
 
 e|------------------------------------------|
 B|------6-----6---6----5--------------------|
 G|--5h7---5h7---7---7----5-5-5-4---------5--|
 D|-------------------------------5-5-5h7----|
 A|------------------------------------------|
 E|------------------------------------------|

[Dm7] [C] [G]  
 
 e|---------------------8-7---8-7---7--------|
 B|------6-----6---6--------8-----8----------|
 G|--5h7---5h7---7---7-----------------------|
 D|------------------------------------------|
 A|------------------------------------------|
 E|------------------------------------------|

N.C. for 4 bars (Piano plays the note D in several octaves)
[Dm7] [C] [G]  
[Dm7] [C] [G]  
[Dm7] [C] [G]  
[Dm7] [C] [G]  
[Dm7] [C] [G]  
 
 e|------------------------------------------|
 B|------6-----6---6----5--------------------|
 G|--5h7---5h7---7---7----5-5-5-4---------5--|
 D|-------------------------------5-5-5h7----|
 A|------------------------------------------|
 E|------------------------------------------|

[Dm7] [C] [G]  
 
 e|---------------------8-7---8-7---7--------|
 B|------6-----6---6--------8-----8----------|
 G|--5h7---5h7---7---7-----------------------|
 D|------------------------------------------|
 A|------------------------------------------|
 E|------------------------------------------|

[Dm7] [C] [G]  
 
 e|------------------------------------------|
 B|--6\3-3-6\3-3-5\1-1-1-0-------------------|
 G|------------------------0-4h5h6-----------|
 D|------------------------------------------|
 A|------------------------------------------|
 E|------------------------------------------|

[Dm7] [C] [G]  
 
 e|------------------------------------------|
 B|--6\3-3-6\3-3-5\1-1-1-0-------------------|
 G|------------------------0-4h5h6-----------|
 D|------------------------------------------|
 A|------------------------------------------|
 E|------------------------------------------|

[Dm7] [C] [G]  
 
 e|------------------------------------------|
 B|----------------------1p0---0-------------|
 G|------0h2-----------0-----0---------------|
 D|--0h3-----------0h3-----------------------|
 A|------------------------------------------|
 E|------------------------------------------|

[Dm7] [C] [G]  
 
 e|------------------------------------------|
 B|----------------1p0---1p0---0-------------|
 G|------0h2-----------0-----0---------------|
 D|--0h3-------------------------------------|
 A|------------------------------------------|
 E|------------------------------------------|

N.C.
 
 e|------------------------------------------|
 B|------6-----6---6----5--------------------|
 G|--5h7---5h7---7---7----5-5-5-4---------5--|
 D|-------------------------------5-5-5h7----|
 A|------------------------------------------|
 E|------------------------------------------|

N.C.
 
 e|---------------------8-7---8-7---7--------|
 B|------6-----6---6--------8-----8----------|
 G|--5h7---5h7---7---7-----------------------|
 D|------------------------------------------|
 A|------------------------------------------|
 E|------------------------------------------|


Important: The song above is NOT stored on the Chordie server. The original song is hosted at www.guitaretab.com. Chordie works as a search engine and provides on-the-fly formatting. Chordie does not index songs against artists'/composers' will. To remove this song please click here.

Text color:
Chord color:
Chord grids: 
Font size:    
Page size: 

A7 C Dm7 G G5 G6 G7
Rate #1 of 4 versions

Login - add to songbook

SHARE PAGE  



You need to log in to post comments